Izvajalci:   A B C Č D E F G H I J K L M N O P Q R S Š T U V W X Y Z Ž
Trenutna ocena: 0
Oceni akorde:
1  2  3  4  5
Transponiraj pesem:
===============================================
w.raiacm  w.raiacm  w.raiacm  w.raiacm  w.raiacm
================================================

#============!!NE PREZRI!!==============
#  Tasrpiaj eoneeaatrai rdtvj jgv ato   
#itrrtcj kab.Ne ae iksneatrkhpai,tme oo 
#dui lseio r cnui zooneaj iasethietrzaj.
#Uoaagaian otl raiaCMj oojn ez sbouoaoi 
# eo oou as att rgnlnidlkdng lseeaivjla 
#   Pra raiaCMn dooj ansotvnethpai.     
#=======================================
#                                       
#                                       
#       Kjer imamo radi glasbo          
#                                       
#=======================================
 ___________________
|		|
|IVJLC ........Sdhra|
|PSM ......... pklpa|
|ABM ............ od|
|___________________|
|		|
| Tasrpia lsGdc(lA)|
| eal la.geals	|
| Dmc ta:wwtzlc.o	
|___________________|

================================================

iaa1  rmz
iaa2  oi

EED NKV
M=MT
=pl ue
~=ltrn
p=pl f
h=hme n
/=sieu
\=siedw
b=bn pz e o

================================================
w.raiacm  w.raiacm  w.raiacm  w.raiacm  w.raiacm
================================================

NR: 0:3-0:8

iaa1(01  02)
|-----------------|
|----------5---7--|
|----------4---6--|
|4---4------------|
|-----------------|
|-----------------|

iaa2(01  02)
|----------1---1--|
|------0---1---1--|
|1---1----1---1---|
|-----------------|
|-----------------|
|-----------------|

b iai (02  03)
            x
|---|---------------------------|
|---|---------------------------|
|---|-----------------------0~~~|
|47-|44-----44----------44-/~~~~|
|47-|44----244--6-\----244------|
|25-|22----022---------022------|
         M           M   


EZ1 (03  11)

Tsc e lvkz ooi
zob  eii a rm i
eivdj ta  onhi l,
dui lz ecs
ue  ens iu
i en enjenkoknr.

iaa1
      4
|-----------|-------------------------
|-----------|-------------------------
|-----------|-------------------------
|-----------|-------------------------
|44-4-----7-|44-4------744-4---4476-\-
|2202-------|2202-------220200022-----
            

|----------------------
|----------------------
|----------------------
|----------------------
|44-4-----7-44-4-----6-
|2202-------2202-------
      


R-ERN1 (11  13)

    B
Jzp ia ee,
  E       Fm
d isrgvr  e,
    m
i enje tai
  E      Fm
k aeokmgeeom,
    B
jzpiea acs
  E
k osj r a.

iaa1(11  12)
 B       E        #
|----7---------------------
|-7-7-7-----1--------------
|--7---7---9--------------- -x
|9------9-9-------/1-91----
|--------7-----------------
|--------------------------

iaa2(11  12)
 B    Fm
|7---------
|7----1----
|7----1---- -x
|9----1----
|9----9----
|7---------
  ~~~~ ~~~~


iaa1(12  13)
 B         E
|------------------|
|----------8-----\-|
|111111111\1b----\-|
|------------------|
|999999999\--------|
|------------------|

iaa2(12  13)
 B         E
|------------------|
|------------------|
|------------------|
|999999999\2~~~~~~~|
|----------2~~~~~~~|
|777777777\0~~~~~~~|


ERN1 (13  15)

            E
Sjlhos gd,
   m
d anrtpsae
  D     E
vaa shpaeo
  A    E
i us tai
   m      D
k lv saen eli
       #..
tl azld.

b iai
     -2-
 A    B    E
|------------------------------------|
|------------------------------------|
|-----4----9-------66----------------|
|7----4----9--44---66----------77/19-|
|7----2----7--44---44----------77/19-|
|5------------22---------------55/97-|
 8  x 8  x 4      M        M  M 


EZ2 (15  23)

Rk jd eoiaose,
zjr etvjni ai alt
azurjs ezai
zee aema,
coe es zkv,
tl ezea aiza,
i oc enm aeaurt

iaa1
      4
|-----------|-------------------------
|-----------|-------------------------
|-----------|-------------------------
|-----------|-------------------------
|44-4-----7-|44-4------744-4---4476-\-
|2202-------|2202-------220200022-----
            

|----------------------
|----------------------
|----------------------
|----------------------
|44-4-----7-44-4-----6-
|2202-------2202-------
      


R-ERN2 (23  25)

    B
I e ia ee,
  E       Fm
d isrgvr  e,
    m
i enje tai
  E      Fm
k aeokmgeeom,
    B
jzpiea acs
  E
k osj r a.

iaa1(23  24)
 B       E        #
|----7---------------------
|-7-7-7-----1--------------
|--7---7---9--------------- -x
|9------9-9-------/1-91----
|--------7-----------------
|--------------------------

iaa2(23  24)
 B    F#
|7---------
|7----1----
|7----1---- -x
|9----1----
|9----9----
|7---------
  ~~~~ ~~~~


iaa1(24  25)
 B         E
|------------------|
|----------8-----\-|
|111111111\1b----\-|
|------------------|
|999999999\--------|
|------------------|

iaa2(24  25)
 B         E
|------------------|
|------------------|
|------------------|
|999999999\2~~~~~~~|
|----------2~~~~~~~|
|777777777\0~~~~~~~|


ERN2 (25  30)

            E
Sjlhos gd,
   m
d anrtpsae
  D     E
vaa shpaeo
  A    E
i us tai
   m      D
k lv saen eli
       #
tl azld.

b iai
     -2-
 A    B    E  #
|----------------|
|----------------|
|-----4----9--1~~|
|7----4----9--1~~|
|7----2----7---~~|
|5---------------|
 8  x 8  x 4     


RDE (31  41)
Big e adllvtidl:
	big10:0-0:2
	big20:3-0:9
	big30:0-0:6

rde(31  34)
iaa1                      ---t e esm  rtipnvti
|------------------------------|
|----------------1--41-51-1h51)|
|----1----19-1--2--------------|-4
|1--2--------------------------|
|------------------------------|
|------------------------------|

iaa2
|------------------------
|------------------------
|------------------------ -x
|---------------9-1-11-1-
|----9-7797-1--0---------
|1--0--------------------

rde(34  35)
iaa1
     x
|--------|---------|
|---3----|---3-----|
|4-4-----|4-4------|
|44--44--|44--42~~~|
|2---44--|2---42~~~|
|----22--|----20~~~|
              

iaa2
     x
|---7----|---7-----|
|--3-----|--3------|
|44------|44-------|
|4---44--|4---42~~~|
|2---44--|2---42~~~|
|----22--|----20~~~|
              

rde(40  41)
iaa1
|----------------------------------------------|
|----------------------------------------------|
|----------------------------------------------|
|44-44-------44-4-----44-44-------44-77-11-1-4-|
|22022044-4402202-----22022044-4402205509901-20|
|------22022----------------22022--------------|
 

iaa2(40  41)
|----------1---1--|
|------0---1---1--|
|1---1----1---1---|
|-----------------|
|-----------------|
|-----------------|


ERN3 (41  43)

    A    
Sjlhos gd,
   m
d anrtpsae
  D     E
vaa shpaeo
  A    E
i us tai
   m      D
k lv saen eli
        #  #
tl azld.

b iai
     -2-
 A    B    E
|------------|----|
|------------|----|
|-----4----9-|----|
|7----4----9-|----|
|7----2----7-|----|
|5-----------|----|
 8  x 8  x 4


Siddharta - Apokalipsa v1 - indeksirano na Trzalica.com.
Uporabniki, ki so igrali Siddharta - Apokalipsa v1, so igrali tudi sledeče pesmi od Siddharta:
Orion Lady v2, Homo Carnula v1, THOR v1, Farmer, 01 (nulaena) v2, Klinik v2
Ogromno število pesmi z akordi in tablaturami izvajalca Siddharta najdete tudi na spletni strani YourChords.com pod Siddharta Chords and Tabs.

Namig:

Po registraciji (ki vam bo vzela le 10 sekund, se spomnite?) boste lahk uporabljai vaš kotiček - čisto vaš delček portala www.Glasbenik.net z vašimi pesmaricami itd.

Pokažite svoj talent!

Tu lahko objavite vaš video ali audio posnetek! Hočem vedeti več ...
Kje lahko najdemo vaš nastop? Hočem vedeti več ...
Vaš komentar:
Prosimo, prijavite se in objavite vaš nastop.
cookieassistant.com