Izvajalci:   A B C Č D E F G H I J K L M N O P Q R S Š T U V W X Y Z Ž
Trenutna ocena: 0
Oceni akorde:
1  2  3  4  5
Transponiraj pesem:
===============================================
w.raiacm  w.raiacm  w.raiacm  w.raiacm  w.raiacm
================================================
#============!!NE PREZRI!!==============
#  Tasrpiaj eoneeaatrai rdtvj jgv ato   
#itrrtcj kab.Ne ae iksneatrkhpai,tme oo 
#dui lseio r cnui zooneaj iasethietrzaj.
#Uoaagaian otl raiaCMj oojn ez sbouoaoi 
# eo oou as att rgnlnidlkdng lseeaivjla 
#   Pra raiaCMn dooj ansotvnethpai.     
#=======================================
#                                       
#                                       
#       Kjer imamo radi glasbo          
#                                       
#=======================================
 ___________________
|		|
|IVJLC ........Sdhra|
|PSM ............Oie|
|ABM ............ od|
|___________________|
|		|
| Tasrpia lsGdc(lA)|
| eal la.geals	|
| Dmc ta:wwtzlc.o	
|___________________|

================================================

EED:
M=MT
=pl ue
/=sieu
\=siedw
~=ltrn

================================================
w.raiacm  w.raiacm  w.raiacm  w.raiacm  w.raiacm
================================================


NR: 0:4-0:8

0:4-0:4
|-------------------------------
|-88--------1-0-----------------
|-99--1-----1-1-----1----9----1-
|-----2-------------1--1-0--1---
|7---------9-------9------------
|---------------------8----0----

0:5-0:8
|------------------------------------------
|------------------------------------------
|------------------------------------------
|22---22---------22--7----22---------------
|22---22----2----22--7----22---------------
|00---00-023-3---00--5----00---------------
     M          M        M  

|--------------------------------------------
|--------------------------------------------
|--------------------------------------------
|22---22---------22--7----22-----------------
|22---22----2----22--7----22-----------------
|00---00-023-3---00--5----00-----------------
     M          M        M  

|----------------|
|----------------|
|----------------|
|---------7--7---|
|32-21-2105--7---|
|---------5--5---|
                M


EZ1 (05  12)

J r it a pr rhlui
J lttsokrjm ivi
J ojvtieki,d esri
L rbpl e ei ersln

            eki.        ..eba..
|1\\---------------------------------------
|------------------------------------------
|----------------/-------------/-----------
|----------2-------------2---------------2-
|----------2-----/-------2-----/---------2-
|----------0-------------0---------------0-
        M         M           M

evn..       ..ego..
|----------------------------
|----------------------------
|----/-------------/---------
|------------2---------------
|----/-------2-----/---------
|------------0---------------
          M            


ERN1 (12  13)

      B    m
Dvasavoia d,
              m
k opdnetlsnhai

 C    B    E
|-------------------------|
|-------------------------|
|-------------------------|
|5----4----2--------2222--|
|3----2----2--------222222|
|3----2----0--------000000|
    M    M             

 C    B    E
|----------------------------|
|----------------------------|
|----------------------------|
|5----4----------------------|
|3----2----7------22---------|
|3----2----------------------|
    M    M                  M


EZ2 (14  20)

Be a pc rz is s.
Be a rn i pc ri
Zt em vjdlzmdlui
zt uto aze aze ap.

           rznsoie.    ..rznshae.
|1\\---------------------------------------
|------------------------------------------
|----------------/-------------/-----------
|----------2-------------2---------------2-
|----------2-----/-------2-----/---------2-
|----------0-------------0---------------0-
        M         M           M

aodjo.      ..aopsm..
|----------------------------
|----------------------------
|----/-------------/---------
|------------2---------------
|----/-------2-----/---------
|------------0---------------
          M            


ERN2 (20  23)

      B    m ---
Dvasavoia d,    \
              m  -2
k opdnetlsnhai -/

 C    B    E
|-------------------------|
|-------------------------|
|-------------------------|
|5----4----2--------2222--|
|3----2----2--------222222|
|3----2----0--------000000|
    M    M             

 C    B    E
|--------------------------
|--------------------------
|--------------------------
|5----4--------------------
|3----2----7------22-------
|3----2--------------------
    M    M

 C    B    E
|-------------------------|
|-------------------------|
|-------------------------|
|5----4----2--------2222--|
|3----2----2--------222222|
|3----2----0--------000000|
    M    M             

 C    B    E
|--------------------------|
|--------------------------|
|---------------------7789\|
|5----4-------------99-----|
|3----2----7---------------|
|3----2--------------------|
    M    M


OO (20  30)

|------------------------------------------
|-----------------------------------------s idknao.
|---------------------------1-1-----------
|-----------------------21-4---91---------
|567---------0-1-2------------------------
|-------0--0-------01-2-------------------
    M                   

 rg iait(rmz gaaod b
0:9=E
0:1=A
0:4=D
0:7=E

(25  30)
|----------------|
|----------------|
|----------------|
|----------1-31-\|
|-----1-31-------|
|1-11------------|


UR:(31  32)
|---------------------------------|
|---------------------------------|
|----------------------1-51--1-02-|
|---------991-21-4-41-5-----------|
|7--------------------------------|
|---------------------------------|



#=======================================
#                                       
#                                       
#       Kjer imamo radi glasbo          
#                                       
#=======================================
================================================
w.raiacm  w.raiacm  w.raiacm  w.raiacm  w.raiacm
================================================


Siddharta - Opice - indeksirano na Trzalica.com.
Uporabniki, ki so igrali Siddharta - Opice, so igrali tudi sledeče pesmi od Siddharta:
Orion Lady v2, Homo Carnula v1, THOR v1, Farmer, Klinik v2, 01 (nulaena) v2
Ogromno število pesmi z akordi in tablaturami izvajalca Siddharta najdete tudi na spletni strani YourChords.com pod Siddharta Chords and Tabs.

Namig:

Če se vam niti ne sanja, kako prijeti akord "Absus4" in podobne eksote, se z miško zapeljite nad akord in prikazal se vam bo diagram akorda.

Pokažite svoj talent!

Tu lahko objavite vaš video ali audio posnetek! Hočem vedeti več ...
Kje lahko najdemo vaš nastop? Hočem vedeti več ...
Vaš komentar:
Prosimo, prijavite se in objavite vaš nastop.
cookieassistant.com