Izvajalci:   A B C Č D E F G H I J K L M N O P Q R S Š T U V W X Y Z Ž
Trenutna ocena: 0
Oceni akorde:
1  2  3  4  5
Transponiraj pesem:
===============================================
w.raiacm  w.raiacm  w.raiacm  w.raiacm  w.raiacm
================================================
#============!!NE PREZRI!!==============
#  Tasrpiaj eoneeaatrai rdtvj jgv ato   
#itrrtcj kab.Ne ae iksneatrkhpai,tme oo 
#dui lseio r cnui zooneaj iasethietrzaj.
#Uoaagaian otl raiacmj oojn ez sbouoaoi 
# eo oou as att rgnlnidlkdng lseeaivjla 
#   Pra raiaCMn dooj ansotvnethpai.     
#=======================================
#                                       
#                                       
#       Kjer imamo radi glasbo          
#                                       
#=======================================
 ___________________
|		|
|IVJLC ........Sdhra|
|PSM ........... brn|
|ABM ............ od|
|___________________|
|		|
| Tasrpia lsGdc(lA)|
| eal la.geals	|
| Dmc ta:wwtzlc.o	
|___________________|

================================================

PMA 4920  zojaatbltr ozsuiFrin a
	  djj auauapploapain!

EED:
M=MT
~=ltrn
=pl ue
X=mfld
p=pl f
h=hme n


Nrb peo)

Venrb r
Mdrgmtd aepsm
Veit o aosl
I zm oktnknvncnirzna

Vmd eb mdoi e an aue
Sjns do ensj aontgl

N admpai i
Zt eltvmtg
Ml se pnevuph
Zt as s at au aaao

================================================
w.raiacm  w.raiacm  w.raiacm  w.raiacm  w.raiacm
================================================

NR: 0:1-0:9

    -3-
 G
|--------------------|
|--------------------|
|-0------------------|
|--010--------hp-----|
|---------------10---|
|3----------------012|
              


EZ1 (00  03)

G
Egeoa s()
Mspl iu iude
Tkt eve lsoa
Tkt eve ijn az ia o e

    -1x-
 G
|------------------
|------------------
|-0----------------
|--010--------hp---
|---------------10-
|3-----------------
              M


ERN1 (03  04)

A        F        m
mzr amviodmzbtde
A        F   D   m FG
Lgtn aes etiiiijs

 A         m
|-------------------
|-------------------
|3~~~~--~~~---------
|3~~~~~~~~~~~~5~~XX-
|1~~~~~~~~~~~~5~~XX-
|-----~~---~~~3~~XX-

 A         m     FG
|-------------------
|-------------------
|3~~~~--~~~---------
|3~~~~~~~~~~~XX5555-
|1~~~~~~~~~~~XX5555-
|-----~~---~~XX3333-


R EZ2 (04  10)

|---------------------------
|---------------------------
|-0--------------2-0--------
|--010-------hp-----010-----
|--------------10-----------
|3----------------3---------

|--------------------------------------------
|--------------------------------------------
|-0--------hp--2-2-0010-----hp--2-2-0010-----
|--010-------10-3-------------10-3-----------
|-----------------3----------------3---------
|3-------------------------------------------


EZ2 (10  12)

G
Mria eedann
Aemv oestze
Hpue auhpu a
Oaaancr an v aotz

    -1x-
 G
|------------------
|------------------
|-0----------------
|--010--------hp---
|---------------10-
|3-----------------
              M


ERN2 (12  13)

A        F        m
mzr amviodmzbtde
A        F   D   m FG
Lgtn aes etiiiijs

 A         m
|-------------------
|-------------------
|3~~~~--~~~---------
|3~~~~~~~~~~~~5~~XX-
|1~~~~~~~~~~~~5~~XX-
|-----~~---~~~3~~XX-

 A         m     FG
|-------------------
|-------------------
|3~~~~--~~~---------
|3~~~~~~~~~~~XX5555-
|1~~~~~~~~~~~XX5555-
|-----~~---~~XX3333-


RDE (13  21)

 F                               G
|---------------------------------------|
|---------------------------------------|
|-----1-------1-------1-------1-------3-|
|-3-13-3--3-13-3--3-13-3--3-13-3--5-35-5|
|--3-------3-------3-------3-------5----|
|1------01------01------01------13------|

 F               Am
|-------------------------------|
|-------------------------------|
|-----1-------1-------686-------|
|-3-13-3--3-13-3--8-68----86----|
|--3-------3-------8---------86-|
|1------01------06--------------|

G
Eoa,eoa,eoa,eoa

    -3-
 G
|------------------
|------------------
|-0----------------
|--010--------hp---
|---------------10-
|3-----------------
              M

|-----------------------------|
|-----------------------------|
|-----------------------------|
|-----------------------------|
|-----------------------------|
|01232101232101234321012321012|


ERN3 (21  25)

A        F        m--
mzr amviodmzbtde    \_x
A        F   D   m   /
Lgtn aes etiiiijs----

 A         m
|-------------------
|-------------------
|3~~~~--~~~---------
|3~~~~~~~~~~~~5~~XX-
|1~~~~~~~~~~~~5~~XX-
|-----~~---~~~3~~XX-

 A         m
|-------------------
|-------------------
|3~~~~--~~~---------
|3~~~~~~~~~~~~XX~~~-
|1~~~~~~~~~~~~XX~~~-
|-----~~---~~~XX~~~-

 A    D  m
|---------|
|---------|
|3----7---|-3
|3----7---|
|1----5---|
|---------|
 8  x 4  6

 A    D  m
|---------|
|---------|
|3----7---|
|3----7---|
|1----5---|
|---------|
 8  x 4  xM






================================================
w.raiacm  w.raiacm  w.raiacm  w.raiacm  w.raiacm
================================================
#=======================================
#                                       
#                                       
#       Kjer imamo radi glasbo          
#                                       
#=======================================
================================================
w.raiacm  w.raiacm  w.raiacm  w.raiacm  w.raiacm
================================================

	brnRmxEoa ei	brnRmxEoa ei


NR: 0:0-0:6

( D D F # m2

EZ1 (03  11)
   m
Egeoa s()
Mspl iu iude
Tkt eve lsoa
Tkt eve ijn az ia o e

ERN1 (11  13)

A        F        m
mzr amviodmzbtde
A        F       m
Lgtn aes etiiiijs

EZ2 (13  20)

G D F

G
Mria eedann
Aemv oestze
Hpue auhpu a
Oaaancr an v aotz


ERN2 (20  22)

A        F        m
mzr amviodmzbtde
A        F       m
Lgtn aes etiiiijs


RDE (22  30)

0:1-0:7
|----------------------------|
|----------------------------|
|----------------------------|
|555-------------------------|
|----------------------------|
|----------------------------|
    .       ..     ..      ..

0:7-0:3

F #   F # m

0:3-0:9
G
Eoa eoa) brn(brn


ERN3 (30  50)

A        F        m--
mzr amviodmzbtde    _3
A        F       m   
Lgtn aes etiiiijs ---

(#  G)x



#=======================================
#                                       
#                                       
#       Kjer imamo radi glasbo          
#                                       
#=======================================
================================================
w.raiacm  w.raiacm  w.raiacm  w.raiacm  w.raiacm
================================================


Siddharta - Eboran - indeksirano na Trzalica.com.
Uporabniki, ki so igrali Siddharta - Eboran, so igrali tudi sledeče pesmi od Siddharta:
Orion Lady v2, Homo Carnula v1, THOR v1, Farmer, 01 (nulaena) v2, Klinik v2
Ogromno število pesmi z akordi in tablaturami izvajalca Siddharta najdete tudi na spletni strani YourChords.com pod Siddharta Chords and Tabs.

Namig:

Če se vam niti ne sanja, kako prijeti akord "Absus4" in podobne eksote, se z miško zapeljite nad akord in prikazal se vam bo diagram akorda.

Pokažite svoj talent!

Tu lahko objavite vaš video ali audio posnetek! Hočem vedeti več ...
Kje lahko najdemo vaš nastop? Hočem vedeti več ...
Vaš komentar:
Prosimo, prijavite se in objavite vaš nastop.
cookieassistant.com