Izvajalci:   A B C Č D E F G H I J K L M N O P Q R S Š T U V W X Y Z Ž
Come Together
The Beatles (Re-done by Aerosmith)

Standard Tuning

Intro:

E------------------------------|
B------------------------------|   Play 4 Times.
G------------------------(10)--|
D------------------------(10)--|
A-------------(10)/(12)--------|
E-(10)--(10)-------------------|

Verse:

E-X--X
B-X--X Play 8 Times.
G-X--X
D-7--8
A-5--5
E-X--X

E-x--x                       E-x
B-x--x Play 4 Times, end on: B-x
G-x--x                       G-x
D-x--x                       D-x
A-7--8                       A-5-|
E-5--5                       E-3-|

Chorus:

E-x--x--x--x-|
B-x--x--x--x-|
G-x--x--x--x-|
D-x--x--x--x-| ...."over me" (don't play during those words"
A-9--7--5--7-|
E-7--5--3--5-|

There are two guitars in the solo. The background guitar, is standard tuning, like 
The guitar that is actually playing the solo is Drop D tuning. So the background to the solo 
played as followed:

E-x--x
B-x--x
G-x--x  Play 8 Times.
D-7--8
A-5--5
E-x--x

E-x--x
B-x--x
G-x--x  Play 8 Times.
D-x--x
A-7--8
E-5--5

Solo: (With Drop D tuning)

E------------------------------------------------------------------------|
B-------(10)--(10)--------(10)--(12)--(12)--------(10)--(10)--(12)--(12--|
G-(10)--(10)--(10)--------(10)--(12)--(12)--------(10)--(10)--(12)--(12--|
D-------------------(12)--------------------(12)-------------------------|
A------------------------------------------------------------------------|
D------------------------------------------------------------------------|

E-----------------------------------------------------------------5--5--|
B-(10)------(10)--------------------------------------------------5--5--|
G-(10)------(10)-----------------------------------5-----5-----5--------|
D------(12)-------5--3--------------------------7-----7-----7-----------|
A-----------------------5--3--0-----------5-----------------------------|
E--------------------------------6--5--3-----0--------------------------|

E----------5--5-----------5--5-----------5--5-----------5--5--5--5-------|
B-7--5-----5--5--7--5-----5--5--7--5-----5--5--7--5-----5--5--5--5--7--5-|
G-7--5-----------7--5-----------7--5-----------7--5-----------------7--5-|
D-------7--------------7--------------7--------------7-------------------|
A------------------------------------------------------------------------|
E------------------------------------------------------------------------|

E----5--5-----------5--5--------------------------5--7--7--5-----(10)---|
B----5--5--7--5-----5--5--7--5-----5--7--7--5--7--5--7--7--5--7--(10)---|
G----------7--5-----------7--5-----5--7--7--5--7--------------7---------|
D-7--------------7--------------7---------------------------------------|
A-----------------------------------------------------------------------|
E-----------------------------------------------------------------------|

E-(12)------------------------------------------------------------------|
B-(12)------------------------------------------------------------------|
G----------------------7---7----------7--7-----5--------4--4------------|
D-----------------7--(10)--9--9----9--7--7-----0--------0--0------------|
A--------------5--5-------------------------5--5--5--7--5--5------------|
E-----------------------------------------------------------------------|

Thats it. Listen to the song for the order, and strumming patterns.


Aerosmith - Come Together tab - indeksirano na Ultimate-Guitar.com.
Uporabniki, ki so igrali Aerosmith - Come Together tab, so igrali tudi sledeče pesmi od Aerosmith:
I Dont Want To Miss A Thing, I Dont Want To Miss A Thing v4, Cryin, Crazy, I Dont Want To Miss A Thing v2,
Angel
Pesem Come Together tab lahko najdete tudi na YourChords.com, kjer vas čakajo tudi številne druge pesmi z akordi in tablaturami izvajalca Aerosmith - Aerosmith Chords and Tabs.

Namig:

Če se vam niti ne sanja, kako prijeti akord "Absus4" in podobne eksote, se z miško zapeljite nad akord in prikazal se vam bo diagram akorda.

Pokažite svoj talent!

Tu lahko objavite vaš video ali audio posnetek! Hočem vedeti več ...
Kje lahko najdemo vaš nastop? Hočem vedeti več ...
Vaš komentar:
Prosimo, prijavite se in objavite vaš nastop.
cookieassistant.com