Izvajalci:   A B C Č D E F G H I J K L M N O P Q R S Š T U V W X Y Z Ž
from Blink 182
I'm Lost Without You
Words and Music by Travis Barker, Tom De Longe and Mark Hoppus
Moderatly = 92bpm


-This is just one insane song. There we're so many things to tab, hopefully
this works for all of you. The ending is played with 2 guitars, which
explains the plus(+) sign.


Intro (after 2 bars)
|-----------------|-----------------|-----------------|-0---------------|
|-5---------------|-5---------------|-5---------------|-----------------|
|---2---2---------|-----------------|---2---2---------|---1---1---------|
|-----------------|---6---6---------|-----4-----------|-2-----------2---|
|-0---0-----------|-----------------|-----------------|-----------------|
|-----------------|-4---4-----------|-2---------------|-----0-----------|

|-----------------|-----------------|-----------------|-0---------------|
|-5---------------|-5---------------|-5---------------|-----------------|
|---2---2---------|-----------------|---2---2---------|---1---1---------|
|-----------------|---6---6---------|-----------------|-------------2---|
|-0---0-----------|-----------------|-----------------|-----------------|
|-----------------|-4---4-----------|-2---2-----------|-0---0-----------|

|-----------------|-----------------|-----------------|-0---------------|
|-5---------------|-5---------------|-5---------------|-----------------|
|---2---2---------|-----------------|---2---2---------|---1---1---------|
|-----------------|---6---6---------|-----------------|-------------2---|
|-0---0-----------|-----------------|-----------------|-----------------|
|-----------------|-4---4-----------|-2---2-----------|-0---0-----------|

|-----------------|-0-----0---------|-----------------|-----------------|
|-5---5-----------|-1---------------|-5-----5---------|-5-----5---------|
|-2---2-----------|-------1---------|-2-----2---------|-4-----4---------|
|-4---------------|---2-------------|---2---------2---|---2---------2---|
|---------4-------|-----------------|-0---0---------0-|-2---2-----2-----|
|-2---------------|-0---0---0-------|-----------------|-----------------|

|-----------------|-0-----0---------|-----------------|--------|--------|
|-5-----5---------|-----------------|-5-----5---------|-5~~~~~~|--------|
|-2-----2---------|-1-----1---------|-2-----2---------|-4~~~~~~|--------|
|---4-------------|---2---------2---|---2---------2---|-2~~~~~~|--------|
|-----------------|-----------------|-0---0-----0---0-|-2~~~~~~|--------|
|-2---2-------2---|-0---0-----0---0-|-----------------|--------|--------|

|-----------------|-----------------|-----------------|-----------------|
|-----------------|-----------------|-----------------|-----------------|
|-----------------|-----------------|-----------------|-----------------|
|-----------------|-----------------|-----------------|-----------------|
|-----------------|-----------------|-----------------|-----------------|
|-----------------|-----------------|-----------------|-----------------|

Chorus
|-------------------------|-------------------------|-------------------------|
|---------(10)--------(10)|------(10)---------(10)--|------(10)--------(10)---|
|---------(9)---------(9)-|------(9)----------(9)---|------(9)---------(9)----|
|---------(7)---------(7)-|------(7)----------(7)---|------(7)---------(7)----|
|-0-0------0---0-0-0---0--|-0-0-0-0---0-0-0-0--0----|-0---0-0---0-0-0-0-0---0-|
|-5-5------5---5-5-5---5--|-5-4-4-4---4-4-4-4--4----|-4\2-5-5---5-5-5-5-5---5-|

|-------------------------|-------------------------|-------------------------|
|---------(10)--------(10)|------(10)---------(10)--|------(10)--------(10)---|
|---------(9)---------(9)-|------(9)----------(9)---|------(9)---------(9)----|
|---------(7)---------(7)-|------(7)----------(7)---|------(7)---------(7)----|
|-0-----0---0-0-----0---0-|-0---0---0---0-0-0-0---0-|-0---0-0---0-0-0-0--0--0-|
|-2/4---4---4-4-----4---4-|-4/5-5---5---5-5-5-5---5-|-5\4-4-4---4-4-4-4--4--4-|

|-------------------------|-------------------------|
|---------(10)--------(10)|------(10)---------(10)--|
|---------(9)---------(9)-|------(9)----------(9)---|
|---------(7)---------(7)-|------(7)----------(7)---|
|-0---0-0---0-0-0-0-0---0-|-0----0---0-0-0-0-0----0-|
|-4\2-5-5---5-5-5-5-5---5-|-2/4--4---4-4-4-4-4----5-|

Fill 1
|------------|------------|
|------------|------------|
|------------|------------|
|------------|------------|
|-0~~~~~~~---|------------|
|-5~~~~~~~---|------------|

Verse (the notes high up are a synth/guitar)
|-----------------|-----------------|-----------------|-----------------|
|-----------------|-----------------|-----------------|-----------------|
|-----------------|-----------------|-----------------|-----------------|
|-----------------|-----------------|-----------------|-----------------|
|-0-0-0-0-0-0-00--|-7-7-7-7-7-7-7-7-|-0-0-0-0-0-0-0-0-|-7-7-7-7-7-7-7-0-|
|-2-2-2-2-2-2-22/4|-4-4-4-4-4-4-4-4-|-5-5-5-5-5-5-5-0-|-7-7-7-7-7-7-7-0-|

|-----------------|-----------------|-----------------|-----------------|
|-----------------|-----------------|-----------------|-----------------|
|-----------------|-----------------|-----------------|-----------------|
|-----------------|-----------------|-----------------|-----------------|
|-0-0-0-0-0-0-00--|-7-7-7-7-7-7-7-7-|-0-0-0-0-0-0-0-0-|-7-7-7-7-7-7-7-0-|
|-2-2-2-2-2-2-22/4|-4-4-4-4-4-4-4-4-|-5-5-5-5-5-5-5-0-|-7-7-7-7-7-7-7-0-|

|-------9-------9-|-------9-------9-|-----------------|---------------9-|
|----10------10---|--9-10----9-10---|---10-12---10-12-|-----10--12--10--|
|-11------11------|-----------------|-9--------9------|---9---9---9-----|
|-----------------|-----------------|-----------------|-----------------|
|-0-0-0-0-0-0-00--|-7-7-7-7-7-7-7-7-|-0-0-0-0-0-0-0-0-|-7-7-7-7-7-7-7-0-|
|-2-2-2-2-2-2-22/4|-4-4-4-4-4-4-4-4-|-5-5-5-5-5-5-5-0-|-7-7-7-7-7-7-7-0-|

|-------9-------9-|-------9-------9-|-----------------|-----------------|
|----10------10---|--9-10----9-10---|---10-12---10-12-|-----------------|
|-11------11------|-----------------|-9--------9------|-----------------|
|-----------------|-----------------|-----------------|-----------------|
|-0-0-0-0-0-0-00--|-7-7-7-7-7-7-7-7-|-0-0-0-0-0-0-0-0-|-7~~~~~~~~~~~~~~~|
|-2-2-2-2-2-2-22/4|-4-4-4-4-4-4-4-4-|-5-5-5-5-5-5-5-0-|-7~~~~~~~~~~~~~~~|

Interlude
|-5---5---5---5---|-7---7---7---7---|-5---5---5---5---|-7---7---7---7---|
|---5---5---5---5-|---5---5---5---5-|---5---5---5---5-|---5---5---5---5-|
|-----------------|-----------------|-----------------|-----------------|
|-----------------|-----------------|-----------------|-----------------|
|-----------------|-----------------|-----------------|-----------------|
|-----------------|-----------------|-----------------|-----------------|

|-5---5---5---5---|-7---7---7---7---|-5---5---5---5---|-7---7---7---7---|
|---5---5---5---5-|---5---5---5---5-|---5---5---5---5-|---5---5---5---5-|
|-----------------|-----------------|-----------------|-----------------|
|-----------------|-----------------|-----------------|-----------------|
|-----------------|-----------------|-----------------|-----------------|
|-----------------|-----------------|-----------------|-----------------|

|-5~~~~~~~~~~-----|-----------------|-----------------|-----------------|
|-----------------|-2---2-----------|-----------------|-2---2-----------|
|-----------------|---2---2---------|-------------2-4-|---2---2---------|
|-----------------|-----------2---2-|---6-6-----------|-----------2---2-|
|-0~~~~~~~~~~-----|-0---------------|-----------------|-----------------|
|-5~~~~~~~~~~-----|-----------------|-4---------------|-2---------------|
                    *Piano Interlude

|-----------------|-----------------|-----------------|-----------------|-------|
|-----------------|-2---2-----------|---------------0-|-2---2-----------|-------|
|---4-4-------4-2-|---2---2---------|---1-1-------2---|---2---2---------|-------|
|-----------------|-----------2---2-|-----------------|-----------2---2-|---4-4-|
|-----------------|-0---------------|-2---------------|-4---------------|-0-----|
|-0---------------|-----------------|-----------------|-----------------|-------|

Chorus 2
|-5---5---5---5---|-7---7---7---7---|-5---5---5---5---|-7---7---7---7---|
|---5---5---5---5-|---5---5---5---5-|---5---5---5---5-|---5---5---5---5-|
|-----------------|-----------------|-----------------|-----------------|
|-----------------|-----------------|-----------------|-----------------|
|-----------------|-----------------|-----------------|-----------------|
|-----------------|-----------------|-----------------|-----------------|


Intro
Chorus
Fill 1
Verse
Chorus
Interlude
Chorus x5 + Chorus 2 x12


Blink 182 - Im Lost Without You v3 tab - indeksirano na Ultimate-Guitar.com.
Uporabniki, ki so igrali Blink 182 - Im Lost Without You v3 tab, so igrali tudi sledeče pesmi od Blink 182:
All The Small Things, I Miss You v3, I Miss You tab, Track 15 tab, Fuck A Dog tab,
Violence
Pesem Im Lost Without You v3 tab lahko najdete tudi na YourChords.com, kjer vas čakajo tudi številne druge pesmi z akordi in tablaturami izvajalca Blink 182 - Blink 182 Chords and Tabs.

Namig:

Iskalnik akordov in tablatur www.Glasbenik.net trenutno indeksira približno 7'800 pesmi izpod prstov približno 500 različnih izvajalcev. In nove pesmi se pridno nabirajo v našem arhivu, tako da vam jih zlepa ne bo zmanjkalo.

Pokažite svoj talent!

Tu lahko objavite vaš video ali audio posnetek! Hočem vedeti več ...
Kje lahko najdemo vaš nastop? Hočem vedeti več ...
Vaš komentar:
Prosimo, prijavite se in objavite vaš nastop.
cookieassistant.com