Izvajalci:   A B C Č D E F G H I J K L M N O P Q R S Š T U V W X Y Z Ž
-------------------------------------------------------------------------------
			     Dammit - Blink 182
-------------------------------------------------------------------------------

By: Filip P.S. [fps86a@hotmail.com]
Album: Dude Ranch and The Mark, Tom and Travis Show (Enema Strikes Back)
Tuning: Standard
Distortion: High


(At live shows instead of the 0 at the D string, Tom plays 5 at the A string
even though it's the same! This goes for all of the Intro Riffs)
Intro Riff: 
e|---------------------------------------------------------------------------|
B|---------------------------------------------------------------------------|
G|---------------------------------------------------------------------------|
D|-------0-0-2-------0-0-2-------0-0-2------2-2-0----------------------------|
A|---3-3---------------------------------------------------------------- x4 -|
E|---------------3-3---------5-5--------1-1----------------------------------|


Verse 1 (part 1):
     (x5)    (x5)    (x5)    (x5)
e|---------------------------------------------------------------------------|
B|---------------------------------------------------------------------------|
G|---5-5555------------------------------------------------------------------|
D|---5-5555--5-5555--7-7777--3-3333------------------------------------------|
A|---3-3333--5-5555--7-7777--3-3333------------------------------------- x2 -|
E|-----------3-3333--5-5555--1-1111------------------------------------------|
PM:    ....    ....    ....    ....

It's alright, to tell me, what you think, about me
I won't try, to argue, or hold it, against you


Verse 1 (part 2)
     (x5)    (x5)    (x5)    (x5)
e|---------------------------------------------------------------------------|
B|---------------------------------------------------------------------------|
G|---5-5555------------------------------------------------------------------|
D|---5-5555--5-5555--7-7777--3-3333------------------------------------------|
A|---3-3333--5-5555--7-7777--3-3333------------------------------------- x2 -|
E|-----------3-3333--5-5555--1-1111------------------------------------------|

I know that, you're leaving, you must have, your reasons
The season, is calling, and your pictures, are falling down


Intro Riff
e|---------------------------------------------------------------------------|
B|---------------------------------------------------------------------------|
G|---------------------------------------------------------------------------|
D|-------0-0-2-------0-0-2-------0-0-2------2-2-0----------------------------|
A|---3-3---------------------------------------------------------------- x2 -|
E|---------------3-3---------5-5--------1-1----------------------------------|


Verse 2 (part 1)
     (x5)    (x5)    (x5)    (x5)
e|---------------------------------------------------------------------------|
B|---------------------------------------------------------------------------|
G|---5-5555------------------------------------------------------------------|
D|---5-5555--5-5555--7-7777--3-3333------------------------------------------|
A|---3-3333--5-5555--7-7777--3-3333------------------------------------- x2 -|
E|-----------3-3333--5-5555--1-1111------------------------------------------|
PM:    ....    ....    ....    ....

The steps that, I retrace, the sad look, on your face
The timing, and structure, did you hear, he fucked her?


Verse 2 (part 2)
     (x5)    (x5)    (x5)    (x5)
e|---------------------------------------------------------------------------|
B|---------------------------------------------------------------------------|
G|---5-5555------------------------------------------------------------------|
D|---5-5555--5-5555--7-7777--3-3333------------------------------------------|
A|---3-3333--5-5555--7-7777--3-3333------------------------------------- x2 -|
E|-----------3-3333--5-5555--1-1111------------------------------------------|

A day late, a buck short, I'm writing, the report
On losing, and failing, when I move, I'm flailing now


Chorus
     (x8)      (x8)      (x8)      (x8)
e|---------------------------------------------------------------------------|
B|---------------------------------------------------------------------------|
G|---55555555----------------------------------------------------------------|
D|---55555555--55555555--77777777--33333333----------------------------------|
A|---33333333--55555555--77777777--33333333----------------------------- x2 -|
E|-------------33333333--55555555--11111111----------------------------------|

And it's happend once again
I'll turn to a friend
Someone that understands
Sees througn the masters plan

But everybody's gone
And I've been here for too long
To face this on my own
Well I guess this is growing up


Intro Riff
e|---------------------------------------------------------------------------|
B|---------------------------------------------------------------------------|
G|---------------------------------------------------------------------------|
D|-------0-0-2-------0-0-2-------0-0-2------2-2-0----------------------------|
A|---3-3---------------------------------------------------------------- x2 -|
E|---------------3-3---------5-5--------1-1----------------------------------|

Well i guess this is growing up


Verse 3 (part 1)
     (x5)    (x5)    (x5)    (x5)
e|---------------------------------------------------------------------------|
B|---------------------------------------------------------------------------|
G|---5-5555------------------------------------------------------------------|
D|---5-5555--5-5555--7-7777--3-3333------------------------------------------|
A|---3-3333--5-5555--7-7777--3-3333------------------------------------- x2 -|
E|-----------3-3333--5-5555--1-1111------------------------------------------|
PM:    ....    ....    ....    ....

And maybe, I'll see you, at a movie, sneak preview
You'll show up, and walk by, on the arm, of that guy


Verse 3 (part 2)
     (x5)    (x5)    (x5)    (x5)
e|---------------------------------------------------------------------------|
B|---------------------------------------------------------------------------|
G|---5-5555------------------------------------------------------------------|
D|---5-5555--5-5555--7-7777--3-3333------------------------------------------|
A|---3-3333--5-5555--7-7777--3-3333------------------------------------- x2 -|
E|-----------3-3333--5-5555--1-1111------------------------------------------|

And I'll smile, and you'll wave, we'll pretend, it's okey
The charade, it won't last, when he's gone, I won't come back


Chorus
     (x8)      (x8)      (x8)      (x8)
e|---------------------------------------------------------------------------|
B|---------------------------------------------------------------------------|
G|---55555555----------------------------------------------------------------|
D|---55555555--55555555--77777777--33333333----------------------------------|
A|---33333333--55555555--77777777--33333333----------------------------- x2 -|
E|-------------33333333--55555555--11111111----------------------------------|

And it's happend once again
I'll turn to a friend
Someone that understands
Sees througn the masters plan

But everybody's gone
And I've been here for too long
To face this on my own
Well I guess this is growing up


Bridge/Interlude: (on the album version only, they have 2 guitars then)
e|---------------------------------------------------------------------------|
B|---------------------------------------------------------------------------|
G|---------------------------------------------------------------------------|
D|---2------0-2----2------0-2----0-2-----------------------------------------|
A|-----3--------3----3--------3------3--------------------------------- x 2 -|
E|-------3-------------3-----------------------------------------------------|

Brige/Interlude: (at live shows + at the album verion along with above)
[ ~ = hold]
e|---------------------------------------------------------------------------|
B|---------------------------------------------------------------------------|
G|---5~----------------------------------------------------------------------|
D|---5~---5~---7~---3~-------------------------------------------------------|
A|---3~---5~---5~---3~-------------------------------------------------- x2 -|
E|--------3~---5~---1~-------------------------------------------------------|

End with "Well i guess this is growing up"


Intro Riff
e|---------------------------------------------------------------------------|
B|---------------------------------------------------------------------------|
G|---------------------------------------------------------------------------|
D|-------0-0-2-------0-0-2-------0-0-2------2-2-0----------------------------|
A|---3-3---------------------------------------------------------------- x4 -|
E|---------------3-3---------5-5--------1-1----------------------------------|

Well i guess this is growing up
Well i guess this is growing up
Well i guess this is growing up
Well i guess this is growing up


Thats it!! Pretty easy song but it sounds great!
//Fps

===============================================================================


Blink 182 - Dammit v5 tab - indeksirano na Ultimate-Guitar.com.
Uporabniki, ki so igrali Blink 182 - Dammit v5 tab, so igrali tudi sledeče pesmi od Blink 182:
All The Small Things, I Miss You v3, I Miss You tab, Track 15 tab, Fuck A Dog tab,
Violence
Pesem Dammit v5 tab lahko najdete tudi na YourChords.com, kjer vas čakajo tudi številne druge pesmi z akordi in tablaturami izvajalca Blink 182 - Blink 182 Chords and Tabs.

Namig:

Če se vam niti ne sanja, kako prijeti akord "Absus4" in podobne eksote, se z miško zapeljite nad akord in prikazal se vam bo diagram akorda.

Pokažite svoj talent!

Tu lahko objavite vaš video ali audio posnetek! Hočem vedeti več ...
Kje lahko najdemo vaš nastop? Hočem vedeti več ...
Vaš komentar:
Prosimo, prijavite se in objavite vaš nastop.
cookieassistant.com