Izvajalci:   A B C Č D E F G H I J K L M N O P Q R S Š T U V W X Y Z Ž
Trenutna ocena: 0
Oceni akorde:
1  2  3  4  5
Transponiraj pesem:
===============================================
w.raiacm  w.raiacm  w.raiacm  w.raiacm  w.raiacm
================================================
#============!!NE PREZRI!!==============
#  Tasrpiaj eoneeaatrai rdtvj jgv ato   
#itrrtcj kab.Ne ae iksneatrkhpai,tme oo 
#dui lseio r cnui zooneaj iasethietrzaj.
#Uoaagaian otl raiacmj oojn ez sbouoaoi 
# eo oou as att rgnlnidlkdng lseeaivjla 
#   Pra raiaCMn dooj ansotvnethpai.     
#=======================================
#                                       
#                                       
#       Kjer imamo radi glasbo          
#                                       
#=======================================
 ___________________________
|			|
|IVJLC ........... idat 	
|PSM ............. nia	|
|ABM ............. D	|
|LT ZD:........... 99	|
|___________________________|
|			|
| rt rnkicj:Tbltr nbsdl  kri|
| vo rnkicj:Ae oe Ais	|
| 	eal la.geals	|
| oaasrntasrpie w.raiacm	
| au atnatasrpie ..07    |
|___________________________|

================================================

EED NKV
M=MT
=pl ue
^=bn p
p=plof
/=sieu
\=siedw
v=vbae

iaa1=Tm
iaa2=Pio

================================================

NR:

iaa1
 B
|577775---------
|------8887777--
|--------------- - x
|---------------
|---------------
|---------------
              M

|577775------------------------|
|------8887777---\-3332---p----|
|------------------------------|
|------------------------------|
|------------------------------|
|------------------------------|

iaa2
 B
|----------------|
|----------------|
|----------------|- x
|799997----------|
|------1-01------|
|----------------|
                

|--------------------------------|
|--------------------------------|
|--------------------------------|
|799997--------------------------|
|------1-01-----7775---\-4442----|
|--------------------------------|


iaa1
|57777555577775--|
|--------------78|
|----------------| -5
|----------------|
|----------------|
|----------------|

|57777555577775--------------------------|
|--------------887-7-7-7-88887-7-7-7-8888|
|----------------------------------------|
|----------------------------------------|
|----------------------------------------|
|----------------------------------------|

|57777555577775--|
|--------------78|
|----------------| -5
|----------------|
|----------------|
|----------------|

|57777555577775----|
|--------------887-|
|------------------|
|------------------|
|------------------|
|------------------|
                  M

iaa2(ie draj kro ooctu:
 B  G  E  B
|------------|
|------------|
|4--------4--| -2
|4--5--2--4--|
|2--5--2--2--|
|---3--0-----|


EZ1

iaa1
 B
|----
|---- Peo zItavVr 
|---- Eka dr maod
|----
|---- aosei
|----   /
       \
 B     x
|------------|
|------------|
|44-44-------|
|44-44-------|
|22-22-------|
|------------|
   M  M

iaa2( a-ao)
 B
|2-3-7-5-|
|0-0-7-5-|
|--------| -9
|--------|
|--------|
|--------|

 A     G F
|5-5-5-3-2-2-2-2-|
|5-5-5-3-2-2-2-2-|
|----------------|
|----------------|
|----------------|
|----------------|

    m
N ut i rsot!
N ut i shbsd
           G #
 adbj ik,
           m
pzb avsso vt

iaa1
           3
|-------------------|-------------|
|5-----------0778777|77878777----\|
|-------------------|-------------|
|-------------------|-------------|
|-------------------|-------------|
|-------------------|-------------|

iaa2
 B        B
|--------|----
|--------|----
|44-44---|44-- pv e x
|44-44---|44--
|22-22---|22--
|--------|----

B
N lna epsaa!
T o otst ape!
             A   F
N ljza,kej lvi
      E
T djs i.

iaa2( a-ao)
 B
|2-3-7-5-|
|0-0-7-5-|
|--------| -5
|--------|
|--------|
|--------|

 A     G F   E
|5-5-5-3-2-2----|
|5-5-5-3-2-2----|
|---------------|
|------------2--|
|------------2--|
|------------0--|
              M


RDE

 *Rf 

b iai
 B   C   C5  D
|---------------------
|---------------------
|---------------------
|44445555666677777777-
|22223333444455555555-
|22223333444455555555-

 E
|----|
|----|
|----| -8
|2222|
|2222|
|0000|


 *Rf 

iaa1
 E
|-----
|-----
|----- - x
|-----
|2222-
|0000-
 

iaa2( a-ao)
|-------
|----1--
|9999---
|-------
|-------
|-------


 *Rf 

iaa1
 E
|----|
|----|
|----| -8
|2222|
|2222|
|0000|

iaa2
|-----------------
|-----------------
|-----------------
|2202330322023353-
|-----------------
|-----------------
 

|-----------------
|-----------------
|-----------------
|2202330322023353-
|-----------------
|-----------------


 *Rf 

iaa1
|-----------------
|-----------------
|----------------- - x
|-----------------
|2--23--32--23--3-
|-----------------

iaa2
|-----------------
|-----------------
|1111111111111111- - x
|-----------------
|9999999911111111-
|-----------------


EZ2

iaa1
|--------------------------------------------
|7-------------------------------------------
|---------7-------------^6---76--6-----------
|---9--9-----9--9--79-----9----79-97---7-4---
|--------------------------------------------
|--------------------------------------------
       

iaa2( a-ao)
 B
|2-3-7-5-|
|0-0-7-5-|
|--------| -5
|--------|
|--------|
|--------|

 A     G F
|5-5-5-3-2-2-2-2-|
|5-5-5-3-2-2-2-2-|
|----------------|
|----------------|
|----------------|
|----------------|

 B
|2-3-7-5-|
|0-0-7-5-|
|--------| -5
|--------|
|--------|
|--------|

 A     G F   E
|5-5-5-3-2-2----|
|5-5-5-3-2-2----|
|---------------|
|------------2--|
|------------2--|
|------------0--|
              M

B
Pma eeanv,
z jhpaiet i
           A   F
ke tesivdi ak,
zsrt skpge
B
th ijmn rsot.
Bl osrhi rpt
          
Dkz d egan!
          #
zv asoirvi
     
c evbj.


UR:

iaa1
|22335566-
|---------
|---------
|---------
|---------
|---------

iaa2
 F G A A
|---------
|---------
|---------
|44557788-
|44557788-
|22335566-


iaa1
|57777555577775--|
|--------------78|
|----------------| -5
|----------------|
|----------------|
|----------------|

|57777555577775--------------------------|
|--------------887-7-7-7-88887-7-7-7-8888|
|----------------------------------------|
|----------------------------------------|
|----------------------------------------|
|----------------------------------------|

|57777555577775--|
|--------------78|
|----------------| -5
|----------------|
|----------------|
|----------------|

|57777555577775----|
|--------------887-|
|------------------|
|------------------|
|------------------|
|------------------|
                  M

iaa2(ie draj kro ooctu:
 B  G  E  B
|------------|
|------------|
|4--------4--| -2
|4--5--2--4--|
|2--5--2--2--|
|---3--0-----|



#=======================================
#                                       
#                                       
#       Kjer imamo radi glasbo          
#                                       
#=======================================
================================================
w.raiacm  w.raiacm  w.raiacm  w.raiacm  w.raiacm
================================================


Siddharta - Indija v2 - indeksirano na Trzalica.com.
Uporabniki, ki so igrali Siddharta - Indija v2, so igrali tudi sledeče pesmi od Siddharta:
Orion Lady v2, Homo Carnula v1, THOR v1, Farmer, 01 (nulaena) v2, Klinik v2
Ogromno število pesmi z akordi in tablaturami izvajalca Siddharta najdete tudi na spletni strani YourChords.com pod Siddharta Chords and Tabs.

Namig:

Če je pesem zapisana previsoko ali prenizko na lestvici, da bi lahko zraven nje udobno peli, vam priporočamo, da jo transponirate. Preprosto kliknite željeno opcijo na desni strani besedila in vsi akordi se bodo transponirali v nov ključ.

Pokažite svoj talent!

Tu lahko objavite vaš video ali audio posnetek! Hočem vedeti več ...
Kje lahko najdemo vaš nastop? Hočem vedeti več ...
Vaš komentar:
Prosimo, prijavite se in objavite vaš nastop.
cookieassistant.com