Izvajalci:   A B C Č D E F G H I J K L M N O P Q R S Š T U V W X Y Z Ž
Trenutna ocena: 0
Oceni akorde:
1  2  3  4  5
Transponiraj pesem:
===============================================
w.raiacm  w.raiacm  w.raiacm  w.raiacm  w.raiacm
================================================
#============!!NE PREZRI!!==============
#  Tasrpiaj eoneeaatrai rdtvj jgv ato   
#itrrtcj kab.Ne ae iksneatrkhpai,tme oo 
#dui lseio r cnui zooneaj iasethietrzaj.
#Uoaagaian otl raiaCMj oojn ez sbouoaoi 
# eo oou as att rgnlnidlkdng lseeaivjla 
#   Pra raiaCMn dooj ansotvnethpai.     
#=======================================
#                                       
#                                       
#       Kjer imamo radi glasbo          
#                                       
#=======================================
	 ______________________________
	  ____________________________ 
	   			  ||
	   ZAAE:....... idat	  ||
	   EE:......... ..	  ||
	   LU:......... D	  ||
	   EOIIA ...... 99	  ||
	   OAASRN ..... w.idat.e	   
	  ____________________________ 
	  				   
	   	Atrtasrpie lA	  ||
	   		   mi:aisa@mi.i  ||
	    Dmc ta rnkicj:wwtzlc.o	   
	   Dtmnsak rnkicj:2.120	  ||
	  ____________________________ 
	 ______________________________

================================================

EED NKV
p=pl f
h=hme n
/=sieu
\=siedw
=hroin o
b=bn pz / oa
r=rlaebn

iaa1=Tm
iaa2=Pio

RJM KRO:

A       
B       
D       
E       
G       

================================================
w.raiacm  w.raiacm  w.raiacm  w.raiacm  w.raiacm
================================================

NR  EZ1

iaa1
 E       A
|----------------|
|----------------|
|---0-------0----| -8
|--0-0-0---0-0-0-|
|-7---7---7---7-7|
|0------05-------|

iaa2
 A   m  
|1------2--|
|----------|
|----------|
|----------|
|----------|
|----------|
       

 E          A         E          
|--------------------------------1-51--1-51-|
|-------------------5-----------------5-----|
|----1-4r1b-----21b-------21b-4r------------| -3
|-1-4--------21--------21-------------------|
|-------------------------------------------|
|-------------------------------------------|

 E          A         E          
|--------------------------------1-51-------|
|-------------------5-----------------5-----|
|----1-4r1b-----21b-------21b-4r-------1-21-|
|-1-4--------21--------21-------------------|
|-------------------------------------------|
|-------------------------------------------|


E          
"a idlldns"j ee,anzj
E       
m dooi as rg admnj
E         
"o evdm, nz ieij i 
E         
va iuoseaj ebl izmn 


ERN1

         m         m
..ebl izmn  ebl izmn
  A       m  A       E  A
n iob amn  ebl izmaaaa.

iaa1 gaaod obsdl grj

iaa2
 E         
|--1-2-------------|
|--1-2-1-1---1p4---|
|--1-2-1-1--4---1--| -4
|-----------------4|
|------------------|
|0-----------------|


EZ2

iaa1
 E       A
|----------------|
|----------------|
|---0-------0----| -1x
|--0-0-0---0-0-0-|
|-7---7---7---7-7|
|0------05-------|

iaa2
 E          A             m       A
|------------------------------------
|---------5--------------------------
|---1-41b--1-1--1--------------------
|1/4-----------4--1-21p2--2-1h41--1--
|-----------------------1--------4---
|------------------------------------

 E          A         E          
|--------------------------------1-51--1-51-|
|-------------------------------------5-----|
|----1-4r1b-----21b-------21b-4r------------|
|-1-4--------21--------21-------------------|
|-------------------------------------------|
|-------------------------------------------|

 E          A         E          
|-------------------------------------------|
|-------------------------------------------|
|----1-4r1b-----2---------2---------1-------|
|-1-4--------21--------21--------1-4--------|
|-------------------------------------------|
|-------------------------------------------|

 E          A         E          
|-------------------------------------------|
|-------------------------------------------|
|----1----------2-4r------2---------1-1b----|
|-1-4--------21--------21--------1-4--------|
|-------------------------------------------|
|-------------------------------------------|

 E          A         E          
|--------------------------------1-51-------|
|-------------------5-----------------5-----|
|----1-4r1b-----21b-------21b-4r-------1-21-|
|-1-4--------21--------21-------------------|
|-------------------------------------------|
|-------------------------------------------|


E        A         E
Smp et oi oeasea,apai
                   E   E A
d m oaork,zn,hs ns s.
E         
Krkutv epidkeutjm,
E         A
vej o aaao olronm iu.
E         
Dvl ij sg,s ee rdnsm
E          
dlcsrnople nl rl il ens..


ERN2

            m            m
..ekiamsim eo  ekiamsim eo
  A           m A          E  A ..(rde
l rl il en-o  ekiamsim eoooo.

iaa1 gaaod obsdl grj

iaa2
 E         
|--1-2-------------|
|--1-2-1-1---1p4---|
|--1-2-1-1--4---1--| -4
|-----------------4|
|------------------|
|0-----------------|


RDE

b iai
 D
|2---|
|3---|
|2---|
|0---|
|0---|
|----|
  ~~~

 E               D
|---------------------------------|
|---------------------------------|
|----0-------0----------------0---| -4
|--9--9-9--9--9-9-----------9--9-9|
|-7-7--7--7-7--7-----------7-7--7-|
|0-------0-------1--------0-------|

E       D
Ge,sji  eint ap.
E       
Se,pj nzrkpdr vj
               _____________
 m                       
Smvm ankl en uts         \
 m                        _ b iaiirt kre
Otlmvdos uiatb otg ion e. 
                             
E   mA >4  ______________


OO

iaa1
 E             m          
|-1-2-2----------------------------
|-1-2-4-4-1-1--2--------2--1-------
|-1-2---4-1-1---1-21-11--1---4-----
|------------------------------41--
|----------------------------------
|----------------------------------

 E                 E                              E       A
|----------------------------------|             |----------------|
|----------------------------------|             |----------------|
|1\11\9-\-\-\-\-\----00----------10|  Vtmdl rmz  |---0-------0----| -2              
|1\21\11\-\-\-\-\---2--------------|  (iaa2 ga-> |--0-0-0---0-0-0-|
|----------------------------------|             |-7---7---7---7-7|
|----------------------------------|             |0------05-------|

 E         A          m        
|----2-----1p2----------1------51---------
|1-1-2-2--2---2--4-1-4-2--1--1---1--1--41-
|1-1----1------1-4-1-4-2----2------21b-41-  
|-----------------------------------------  \
|-----------------------------------------   
|-----------------------------------------   \
                                              _  e euPio Ktr )
 E                  E                    E      gaaod mi .
|----1----51--------1p2--------51----------  /
|-21---2----1--1--21---2--4-1-2--1--1--41\-  
|-21----1-----21b-21----1-4-1-2----21b-41\- /
|------------------------------------------
|------------------------------------------
|------------------------------------------


EZ3

E A  x
E         A
Piecs ozzvmvvtu
   m        
sjl rdloz oi apaes jd.
 E        
Zak l atzo
       m   E  A
sm avefn e ioj

iaa1 gaaod obsdl grj

iaa2
 E        A
|--1-2-1----------
|--1-2-1-1--------
|--1-2-1-1-------- - x
|-----------------
|-----------------
|0----------------

 E          
|-----------------------
|-----------------------
|----1-41-------21-4r1-- - x
|-1/4--------21---------
|-----------------------
|-----------------------

 E                      m            
|-----------------------------------------------|
|-----------------------------------------------|
|----1-41------21-4r1------21-4r1------21-4r1---|
|-1/4--------1--------4--1--------4--1----------|
|-----------------------------------------------|
|-----------------------------------------------|


ERN3

 m  A  E      m  A  E   
Fin ee iioje,fin ee iioje,
 m  A  E      m  A  m  A  m
FIN EE IIOJE,FIN EEEEEEEEEE

iaa1 gaaod obsdl grj

iaa2
 E           A          E           A
|----------------------------------------------
|----------------------------------------------
|---1-41b-2-----1-41b-2----1-41b-2-----1-4-----
|--4-------1---4----------4-------1---4--------
|----------------------------------------------
|----------------------------------------------

 E                A
|--------------------------
|------------------5-------
|1p2-21p2-21p2-21b---4--2-- - x
|---4----4----4------------
|--------------------------
|--------------------------

 E         
|--1-2-------------|
|--1-2-1-1---1p4---|
|--1-2-1-1--4---1--| -3
|-----------------4|
|------------------|
|0-----------------|

 E                 E
|--1-2-------------1-------
|--1-2-1-1---1p4---1-------
|--1-2-1-1--4---1--1-------
|-----------------4--------
|--------------------------
|0-------------------------




#=======================================
#                                       
#                                       
#       Kjer imamo radi glasbo          
#                                       
#=======================================
================================================
w.raiacm  w.raiacm  w.raiacm  w.raiacm  w.raiacm
================================================


Siddharta - L.E. - indeksirano na Trzalica.com.
Uporabniki, ki so igrali Siddharta - L.E., so igrali tudi sledeče pesmi od Siddharta:
Orion Lady v2, Homo Carnula v1, THOR v1, Farmer, 01 (nulaena) v2, Klinik v2
Ogromno število pesmi z akordi in tablaturami izvajalca Siddharta najdete tudi na spletni strani YourChords.com pod Siddharta Chords and Tabs.

Namig:

Po registraciji (ki vam bo vzela le 10 sekund, se spomnite?) boste lahk uporabljai vaš kotiček - čisto vaš delček portala www.Glasbenik.net z vašimi pesmaricami itd.

Pokažite svoj talent!

Tu lahko objavite vaš video ali audio posnetek! Hočem vedeti več ...
Kje lahko najdemo vaš nastop? Hočem vedeti več ...
Vaš komentar:
Prosimo, prijavite se in objavite vaš nastop.
cookieassistant.com