Izvajalci:   A B C Č D E F G H I J K L M N O P Q R S Š T U V W X Y Z Ž
Trenutna ocena: 0
Oceni akorde:
1  2  3  4  5
Transponiraj pesem:
===============================================
w.raiacm  w.raiacm  w.raiacm  w.raiacm  w.raiacm
================================================
#============!!NE PREZRI!!==============
#  Tasrpiaj eoneeaatrai rdtvj jgv ato   
#itrrtcj kab.Ne ae iksneatrkhpai,tme oo 
#dui lseio r cnui zooneaj iasethietrzaj.
#Uoaagaian otl raiaCMj oojn ez sbouoaoi 
# eo oou as att rgnlnidlkdng lseeaivjla 
#   Pra raiaCMn dooj ansotvnethpai.     
#=======================================
#                                       
#                                       
#       Kjer imamo radi glasbo          
#                                       
#=======================================
	 ______________________________
	  ____________________________ 
	   			  ||
	   ZAAE:....... idat	  ||
	   EE:......... uunsn	   
	   LUI ...Slcndla/Iseai/Mrtn   
	   EOIIA    20     20    07  ||
	   OAASRN ..... w.idat.e	   
	  ____________________________ 
	  				   
	   	Atrtasrpie lA	  ||
	   		   mi:aisa@mi.i  ||
	    Dmc ta rnkicj:wwtzlc.o	   
	   Dtmnsak rnkicj:1.120	  ||
	  ____________________________ 
	 ______________________________

rarziiat em rmx ej oaian luuSlcndla idat aj e
 iopvciel 1920  daiIseain au22vautciivdi aSdhra
aaou is ezoi ea n anj 51.07,p oj zel ri rdkneto
ulk vautce euknet) idat ri aj aautcavriaoiian
ezj epsi(orzrjj  ztknh.
atasrpiaj aiaapa aivdovIseai,z ezj  luaSlcndlap
gat aoaod zbsdl.

================================================

EED NKV
   () elsitn
/=sieu
\=siedw

oiir aoaod,Pio air osoa aiaitbltr mdvro
nrfeo prbj kre ismjhnpslvtbl)

RJM KRO:

	 oi	 Pio
A -X02220 >XXX91 
B -X24432 >XX91 21
E -022100 >XXX997
Fm-244222 >XXX1 09
G -320003 >XXX787

================================================
w.raiacm  w.raiacm  w.raiacm  w.raiacm  w.raiacm
================================================

NR:
 B                    m           
|----1--9--1-----9-------0------1---------|
|---2-----2---1-0---0--1--1----2---0--0---|
|-1-------------------1------1------------|
|9----------------------------------------|
|-----------------------------------------|
|-----------------------------------------|

 E      #            B
|--7-----9---9---9------7------0-----
|-9-9-----1---1---1----7-----1--1----
|9------1---1---1-----7-----1--------
|--------------------9---------------
|------------------------------------
|------------------------------------


EZ

B              G
Wtsnymrigi ydr om
  A    G       B
Ia ln u  elgo
B            
Batfltw sudrm
  A                  m
Rfetn ihsbtenatm evs
B                  
S ue ocl otpol r okn
  A     G       m
S a wyi oio en


ERN

B                  
Adteesti ht lu ntesy
     G    A     G
Tuhn onan oee nso
    G   A  G
Sle idi eeaan
   G       m
Ia igbts nnw


RDE
 B              G                    G     m
|---1-------0-----7--------7--/-----99\-------0-------0-----
|1-2--2---1--1---8-8-------8--/0---011\-----1--1----1--1----
|1-------1------7----------7--/-----99\----1-------1--------
|9----------------------------------------------------------
|-----------------------------------------------------------
|-----------------------------------------------------------

 B              G                                      B
|---1-------0-----7-----77---7--/------9-----------()-------
|--2--2---1--1---8-8----88---8--/0---0--1-----------()------
|1------(1------7-------77---7--/-----9--------------()-----
|-----------------------------------------------------------
|-----------------------------------------------------------
|-----------------------------------------------------------


ERN

                   
Adteesti ht lu ntesy
     G    A     G
Tuhn onan oee nso
    G   A  G
Sle idi eeaan
   G       m
Ia igbts nnw




#=======================================
#                                       
#                                       
#       Kjer imamo radi glasbo          
#                                       
#=======================================
================================================
w.raiacm  w.raiacm  w.raiacm  w.raiacm  w.raiacm
================================================


Siddharta - Autumn sun - indeksirano na Trzalica.com.
Uporabniki, ki so igrali Siddharta - Autumn sun, so igrali tudi sledeče pesmi od Siddharta:
Orion Lady v2, Homo Carnula v1, THOR v1, Farmer, 01 (nulaena) v2, Klinik v2
Ogromno število pesmi z akordi in tablaturami izvajalca Siddharta najdete tudi na spletni strani YourChords.com pod Siddharta Chords and Tabs.

Namig:

Po registraciji (ki vam bo vzela le 10 sekund, se spomnite?) boste lahk uporabljai vaš kotiček - čisto vaš delček portala www.Glasbenik.net z vašimi pesmaricami itd.

Pokažite svoj talent!

Tu lahko objavite vaš video ali audio posnetek! Hočem vedeti več ...
Kje lahko najdemo vaš nastop? Hočem vedeti več ...
Vaš komentar:
Prosimo, prijavite se in objavite vaš nastop.
cookieassistant.com