Izvajalci:   A B C Č D E F G H I J K L M N O P Q R S Š T U V W X Y Z Ž
Trenutna ocena: 0
Oceni akorde:
1  2  3  4  5
Transponiraj pesem:
===============================================
w.raiacm  w.raiacm  w.raiacm  w.raiacm  w.raiacm
================================================                                                                          
#============!!NE PREZRI!!==============
#  Tasrpiaj eoneeaatrai rdtvj jgv ato   
#itrrtcj kab.Ne ae iksneatrkhpai,tme oo 
#dui lseio r cnui zooneaj iasethietrzaj.
#Uoaagaian otl raiacmj oojn ez sbouoaoi 
# eo oou as att rgnlnidlkdng lseeaivjla 
#   Pra raiaCMn dooj ansotvnethpai.     
#=======================================
#                                       
#                                       
#       Kjer imamo radi glasbo          
#                                       
#=======================================
 ___________________________
|			|
|IVJLC ................Sdhra|
|PSM ..................Sdhra|
|ABM ..................I |
|LT ZD:................19 |
|___________________________|
|			|
| rt rnkicj:Tbltr nbsdl  kri|
| vo rnkicj:Ae oe Ais	|
| 	eal la.geals	|
| oaasrntasrpie w.raiacm	
| au atnatasrpie ..07    |
|___________________________|

================================================

EED NKV
M=MT
=pl ue
X=mfld
p=plof
h=hme n
/=sieu
\=siedw
b=bn pz / oa
r=rlaebn
v=vbae
..=ndleaj ikna

iaa1=Tm
iaa2=Pio

================================================

NR: 0:0-0:0

iaa1
 Eu4
|-0----0--0----0--0----0---0---0--|
|---0-0-0-0-0-0-0-0-0-0-0-0-0-0-0-|
|2---2---2---2---2---2---2---2---2|
|---------------------------------|
|---------------------------------|
|---------------------------------|

iaa2
|---------------
|----21--3-2----
|----2-----2----
|---------------
|---------------
|---------------

b iai
 E                    
|0------0-------000----2222-|
|0------1-------333----3333-|
|0------0-------000----2222-| -2
|2------2-------222----0000-|
|2------2-------333----0000-|
|0------0-------------------|


EZ1 (02  04)

     m
Srtvmru
          D
ptpjnvse aatk
      E
j ln"ai jd"
     C    D
slnlsoavrvna

iaa2
|----------------------------|
|----------------------------|
|1-19--------1-19------------| -2
|----1-----------1-01--0/21--|
|----------------------------|
|----------------------------|

       E
kdrnjs ii
    C     
njs iise jt
       E
mduoieurai oa
           
i dj vz eii jd.

iaa1
 E                    
|0------0-------000----2222-|
|0------1-------333----3333-|
|0------0-------000----2222-| -2
|2------2-------222----0000-|
|2------2-------333----0000-|
|0------0-------------------|

iaa2
|------------------------
|------------------------
|------------------------ - x
|9797-------9797---------
|----1----------1----99--
|------------------------
        


RHDVVR : 0:8-0:2

iaa1
 E                     D
|0-------0-------0000002-------
|0-------1-------3333333-------
|0-------0-------0000002------- - x
|2-------2-------2222220-------
|2-------2-------3333330-------
|0-------0---------------------

iaa2
|-----------------------------------------------------------|
|788-h--------------------/\v-h--78875--------------7-787878|
|7---------/\---9997757---------------457545---\-----7------|
|-----------------------------------------------------------|
|-----------------------------------------------------------|
|-----------------------------------------------------------|


EZ2 (10  15)

    m
Siis eo
          D
duads,it aeil
    m
vaark,lc ntl,
           
vaapmtgevnb,

iaa2
|----------------------------|
|----------------------------|
|1-19--------1-19------------| -2
|----1-----------1-01--0/21--|
|----------------------------|
|----------------------------|

       E
k enmroia
      C      
k emruiave anmvnm
    E
i e"e"n tn ootl
           
nkjlt jd anmvl
    E
Njs ii
    C     
njs iiSe jt
       E
mdiuiesrai oa
     C         
i dj o,vkrnjb eoa,
    E
njs ii
    C      
njs iivsc mlh,
    E
n asei

iaa1
             5
 E                           E
|0------0-------000----2222-|0--00--
|0------1-------333----3333-|0--00--
|0------0-------000----2222-|0--00--
|2------2-------222----0000-|2--22--
|2------2-------333----0000-|2--22--
|0------0-------------------|0--00--

iaa2
            x                        2
|------------------------------------------------|-----------
|------------------------------------------------|-----------
|------------------------------------------------|-----------
|9797-------9797---------------------------------|9797-------
|----1----------1----99-------07---------07-7----|----1------
|------------------------------------------------|-----------
        


R-OO (15  22)

iaa1
 E               E                    D          m
|------------------------------------------------------|
|------------------------------------------------------|
|------------------------------------------------------|
|----2--5----0--52---5----5---4---24--0---0----7-------|
|---3----------------------------------------------9---|
|1\----------------------------------------------------|
                  M   M                M   M          

     E                      D           E
|-----------------------------------------------------------|
|-----------------------------------------------------------|
|--------------------------------------------1----2--1----2\|
|-------7------9-----9---7--7---1--79-0-1-1-4--41---4--41--\|
|79--1------1----0------0-----------------------------------|
|-----------------------------------------------------------|
                  M   M      M     

iaa2
 E                 E                      D           m
|----------------------------------------------------------|
|-1-2-0----------------------------------------------------|
|-------21--1---1-29---------------------------------------|
|-------------2-------------------------------------7------|
|----------------------1--79-0---9-0----1-9--0---91-----9--|
|----------------------------------------------------------|
                    M               M      M           

         m          C                       m
|-----------------------------------------------------------
|-----------------------------------------------------------
|-----------------------------------------------------------
|-----------------------------------7-----7-----------------
|----------9-0----1-7---1--79-0---1-----1-------------------
|770301-----------------------------------------------------
       M      M               M


OO1 (22  30)

iaa1
  m                   C                                               m
|-----------------------------------------------------------------------------------------------
|-----------------------------------------------------------------------------------------------
|\---1--11--1-1-21-1p19-91--1-2--2-1-21h21ph19-h19----991--1/2--21----1-61-61-41-41\21-21--9----
|----------9-----------9---9------9-----------2---2--2----2---1----1------------------------111-
|-----------------------------------------------------------------------------------------------
|-----------------------------------------------------------------------------------------------

 E                           C                          D                           m
|-----------------------------------------------------------------------------------0-2-2-2-2--2--2-2--2--2-2--2--0-|
|---------------------------------------------------------------5--5--578---0--01-0---------------------------------|
|9--1----------9--1----------9--1----------9--1-------------457-----------------------------------------------------|
|----------21-2----------21-2----------21-2----------21\0245--------------------------------------------------------|
|-------------------------------------------------------------------------------------------------------------------|
|-------------------------------------------------------------------------------------------------------------------|

 E                    C                    D                    E
|1--2-1-2-1---1--01--01--2-1-2-1-2-1--01--01--2-1-2-1-2-1--01--01--01--01--01--01--2--
|-------------------------------------------------------------------------------------
|----9---9---9------------9---9---9------------9---9---9------------------------------
|-------------------------------------------------------------------------------------
|-------------------------------------------------------------------------------------
|-------------------------------------------------------------------------------------

iaa2
 E                                  
|-----------------------------------|
|-----------------------------------|   
|9---1112-21--1121--991111-1-29111-2|   \
|-----------------------------------|    
|7------0-01----01--779991-1-07991-0|    \
|-----------------------------------|     
                                          \
 D                   E                     _ x
|---------------------------------------   
|---------------------------------------  /
|1-1121-21-1-411-21-4-------------------  
|--------------------7------------------ /
|9---01-01-1-291-01-2-1--0979797-------- 
|-------------------------------1--091--
                     


RHDVSL : 0:8-0:4

iaa1
        x
 E                E               D
|----------------|---------------------------
|8--87--7--------|8--87--7-------------------
|-9---9--9--97---|-9---9--9--97---7----------
|--9---9--9----9-|--9---9--9----9------------
|----------7--7-7|----------7--7-7-----------
|----------------|---------------------------
  

iaa2
       x
 E            D
|------------|------------
|------------|------------
|------------|7---77---7--
|2----2---2--|7---77---7--
|2----2--22--|5---55---5--
|0----0--00--|------------
  M     M  M


OO2 (32  35)

iaa1
 D m               m         m
|-----------------------------------|
|-----------------------------------|
|7/---------------------------------|
|-------7----------/01--------------|
|---------0----71--------1-9-h097---|
|-----------------------------------|

   E        D        A         E
|----------------------------------|
|----------------------------------|
|-79-97----------------------------|
|9--9--9----797-----791-097--------|
|---------1--------0--------0--7---|
|----------------------------------|

   E                 A           E
|-----------------------------------------|
|-----------------------------------------|
|-79-9-9--9-/1--1--1v1/2--2-1v-1v1/4--4---|
|9----------------------------------------|
|-----------------------------------------|
|-----------------------------------------|

    m                     m           E
|---21-2-----------------------------------
|01-----1-1--------------------------------
|-----------1-1-4--2-1--2-11p19-1-----9---\
|------------------------------------------
|------------------------------------------
|------------------------------------------

iaa2
 E       D       A       E
|--------------------------------|
|--------------------------------|
|--------7-77-77-----------------| -4
|2-22-22-7-77-77-7-77-77-2-22-22-|
|2-22-22-5-55-55-7-77-77-2-22-22-|
|0-00-00---------5-55-55-0-00-00-|


ALUN OO (35  42)

iaa1
 E                C                 D                       m
|---------------------------------------------------------------------------
|----7br--------------------------------------------------------------------
|9-79-----------79---11-------11---91-11-21-41-41-21-21h21\-1-99-----1-1----
|-9---------------1--------1------------------------------------------------
|---------------------------------------------------------------------------
|---------------------------------------------------------------------------
                 

 E
|1-5-4-5-41p41\0-------------------
|1--------------2--1-\-7-87535-----
|----------------------------------
|----------------------------------
|----------------------------------
|----------------------------------

iaa2
 E                               D                E
|--------------------------------------------------------|
|--------------------------------------------------------|
|--------------------------------------------------------|
|----4br--------------------------0009-----0005---/---2--|
|7-57-----------57-799br--------79-----------------------|
|-7---------------8--------------------------------------|
                             

 E
|0---------------------0----0-0---
|0--------------0------0----0-----
|0---------------0-----0----0-----
|2---------------------2----2-----
|2---------------------2----2-----
|0---------------------0----0-----


EZ3 (42  50)

   m
O e,hj e,t  re,
           
vrae l e ibssrhppl
   m
I e,hj e,t eei
           D
spnsmi rc ebd bl

iaa1
 E                    
|0------0-------000----2222-|
|0------1-------333----3333-|
|0------0-------000----2222-| -2
|2------2-------222----0000-|
|2------2-------333----0000-|
|0------0-------------------|

   m
I e,hj e,t  ee,
             D
s po djrzml a idui e.
   m            C       
I e,hj e,l okmpletl et,
      E
kes ee
     C      D
Sjj oojz od ai
       E
nm om,kei djncjb pl
         C           E..
i eb ur sa;p a eprnj ai.

iaa1
 E                     D
|0-------0-------0000002-------
|0-------1-------3333333-------
|0-------0-------0000002------- - x
|2-------2-------2222220-------
|2-------2-------3333330-------
|0-------0---------------------

iaa2
            x
|-----------------------------------------------------------------------------------
|-----------------------------------------------------------------------------------
|-------------------------------------------------------------9X9X9X9/11-11-1-------
|9797-------9797-----------------------------------------------X-X-X----------------
|----1----------1----99-------07--79797-----07-7---------07--77X7X7X7/-9--1-1-79----
|--------------------------------------------------------------X-X-X----------------
        


UR EZ (50  52)

     ..m
..aaoadv,
     C     
prnj aii tp,
      E
zkjuiais,
   C        E
uiais epvbjn.
       
eeeeeeee

b iai
 E             C      D
|----------------------------|
|----------------------------|
|--------------5---5--7---7--| -3
|2---2--2---2--5-555--7-777--|
|2-222-22-222--3-333--5-555--|
|0-000-00-000----------------|
                 


UR: 0:3-0:0

iaa1
|-------------------------------|
|-------------------------------|
|59-999997-9979999999999999999..|
|-------------------------------|
|37-777777-7777777777777777777..|
|-------------------------------|

|------------------------------------------- __
|-------------------------------------------
|..--1-2-1--2-1--2-1----1----1--6-1---2-----   dt arjtbltr aauesm rjm,
|-------------------------------------------   aseio'dre'psmzeapieap olsjpsm
|..----0-1--0-1--0-1----1----1--4-1---1-----
|-------------------------------------------
                                              
|-----------------------------------------------------|
|--------------------------------2----2-----3-21-4/2--|
|1--1-1--1---9--1---8-1--8-1-1-6----------------------|
|--------------------------------1----1-----1--1-1/8--|
|1--9-1--9---7--1---6-1--6-1-1-4----------------------|
|-----------------------------------------------------|

iaa2
 E             C      D
|----------------------------|
|----------------------------|
|--------------5---5--7---7--| -8
|2---2--2---2--5-555--7-777--|
|2-222-22-222--3-333--5-555--|
|0-000-00-000----------------|
                 

 E
|---------
|---------
|---------
|2--------
|2--------
|0--------




#=======================================
#                                       
#                                       
#       Kjer imamo radi glasbo          
#                                       
#=======================================
================================================
w.raiacm  w.raiacm  w.raiacm  w.raiacm  w.raiacm
================================================


Siddharta - Siddharta v2 - indeksirano na Trzalica.com.
Uporabniki, ki so igrali Siddharta - Siddharta v2, so igrali tudi sledeče pesmi od Siddharta:
Orion Lady v2, Homo Carnula v1, THOR v1, Farmer, 01 (nulaena) v2, Klinik v2
Ogromno število pesmi z akordi in tablaturami izvajalca Siddharta najdete tudi na spletni strani YourChords.com pod Siddharta Chords and Tabs.

Namig:

Iskalnik akordov in tablatur www.Glasbenik.net trenutno indeksira približno 7'800 pesmi izpod prstov približno 500 različnih izvajalcev. In nove pesmi se pridno nabirajo v našem arhivu, tako da vam jih zlepa ne bo zmanjkalo.

Pokažite svoj talent!

Tu lahko objavite vaš video ali audio posnetek! Hočem vedeti več ...
Kje lahko najdemo vaš nastop? Hočem vedeti več ...
Vaš komentar:
Prosimo, prijavite se in objavite vaš nastop.
cookieassistant.com