Izvajalci:   A B C Č D E F G H I J K L M N O P Q R S Š T U V W X Y Z Ž
Trenutna ocena: 0
Oceni akorde:
1  2  3  4  5
Transponiraj pesem:
R.E.M. Chords: Losing My Religion
F         xx3211         Em        022000
Fsus2     xx3011         Em(II)    x79987
G         320033         Ebm       x68876
Am        x02210         C         x32010
Am(II)    xxx210         Dm        xx0231


-10-12-10----
----------10-
-------------
-------------
-------------
-------------


  Am          AmII            AmII            AmII   AmII AmII
|-0-----------0---------------0-|-------------0-------0---0-----|
|-1-----------1---------------1-|-------------1-------1---1-----|
|-2-----------2---------------2-|-------------2-------2---2-----|
|-2-----------------------------|-------------------------------|
|-0-----------------------------|-------------------------------|
|-------------------------------|-------------------------------|

  F       /   F   F Fsus2     F   /   F       F   G       G   Am
|-1-----------1---1---1-------1-|-----1-------1---3-------3---0-|
|-1-----------1---1---1-------1-|-----1-------1---3-------3---1-|
|-2-----------2---2---0-------2-|-----2-------2---0-------0---2-|
|-3-----------3---3---3-------3-|-----3-------3---0-------0---2-|
|-------------------------------|-----------------2-------2---0-|
|-------------------------------|-----------------3-------3-----|

  Am      Am      Am  Am      G
|-0-------0-------0---0-------3-|
|-2-------2-------2---2-------3-|
|-2-------2-------2---2-------0-|
|-1-------1-------1---1-------0-|
|-0-------0-------0---0-------2-|
|-----------------------------3-|

        Am            Em
Oh life    is bigger,    it's bigger than you.
            Am                              Em
And you are not me, the lengths that I will go to.
                           Am
The distance in your eyes.
Em                  Em(II) Ebm D                G
   Oh no, I've said     too    much, I've said it all.
                   Am                         Em
That's me in the corner,    That's me in the spot light,
              Am                  Em
Losing my religion.    Trying to keep up with you.
      Am
And I don't know if I can do it.
Em                  Em(II) Ebm D                           G
   Oh no, I've said     too    much, I haven't said enough.
                                     F Fsus2
I thought that I heard you laughing.
F                G         Am    Am(II)
I thought that I heard you sing.
  F          Fsus2  F   G   Am
I think I thought I saw you try.
G         Am
  Every whisper,
             Em                    Am
Every waking hour, I'm choosing my confessions.
          Em
Trying to keep an eye on you.
       Am
Like a hurt lost and blinded fool, fool.
Em                      D                G
   Oh no, I've said too much.    I said enough.
          Am                     Em
Consider this,    consider this hint of the century.
         Am                          Em
Consider this,    the slip, that brought me to my knees pale.
Am                                   Em
What if all these fantasies come    flaming aground.
Em(II)   D       G
Now I've said too much.
                              F Fsus2
I thought that I heard you laughing.
F                G         Am    Am(II)
I thought that I heard you sing.
  F          Fsus2  F   G   Am   G
I think I thought I saw you try.


{Interlude:}

-----12--12--12--10--10--10--10--10--8--8--8--5--5--5--5--5-----------------
------------------------------------(13)-----(10)--optional za lažje igranje
----------------------------------------------------------------------------
----------------------------------------------------------------------------
----------------------------------------------------------------------------
----------------------------------------------------------------------------

F   
That was just a dream.
Am                  G                    Am
  That was just a dream.   That's me in the corner.
                 Em                      Am
That's me in the spot light, losing my religion.
          Em                       Am
Trying to keep up with you.  And I don't know if I can do it.
Em                  Em(II) Ebm  D
   Oh no, I've said     too    much.
                 G
I haven't said enough.
                              F Fsus2
I thought that I heard you laughing.
F                G         Am    Am(II)
I thought that I heard you sing.
  F          Fsus2  F   G     Am(II)
I think I thought I saw   you try.
    F        Fsus2  F           Am      Am(II)
But that was just a dream,      try, cry, why try.
F        Fsus2  F      G        Am            G      /
That was just a dream,   just a dream, just a dream, dream.


{Outro:}

  Am
  v        v
|-12-12-12-12-12-12-12-12-|-12-10-------10-------------|
|-------------------------|-------13-10----13-10-13-10-|
|-------------------------|----------------------------|
|-------------------------|----------------------------|
|-------------------------|----------------------------|
|-------------------------|----------------------------|
(Play the first measure 7 times)


R.E.M. - Losing my Religion - indeksirano na Trzalica.com.
Uporabniki, ki so igrali R.E.M. - Losing my Religion, so igrali tudi sledeče pesmi od R.E.M.:
Everybody Hurts, Final Straw

Namig:

Če si vzamete 10 sekund za registracijo, boste lahko komentirali ter ocenjevali vse akorde in tablature. Prav tako boste lahko komentirali in ocenjevali video posnetke drugih kitaristov - in seveda boste tudi sami lahko objavili video posnetek, kako zaigrate vašo najljubšo pesem.
Kliknite tukaj in se nam pridružite!

Pokažite svoj talent!

Tu lahko objavite vaš video ali audio posnetek! Hočem vedeti več ...
Kje lahko najdemo vaš nastop? Hočem vedeti več ...
Vaš komentar:
Prosimo, prijavite se in objavite vaš nastop.
cookieassistant.com