Izvajalci:   A B C Č D E F G H I J K L M N O P Q R S Š T U V W X Y Z Ž
Trenutna ocena: 0
Oceni akorde:
1  2  3  4  5
Transponiraj pesem:
===============================================
w.raiacm  w.raiacm  w.raiacm  w.raiacm  w.raiacm
================================================
#============!!NE PREZRI!!==============
#  Tasrpiaj eoneeaatrai rdtvj jgv ato   
#itrrtcj kab.Ne ae iksneatrkhpai,tme oo 
#dui lseio r cnui zooneaj iasethietrzaj.
#Uoaagaian otl raiacmj oojn ez sbouoaoi 
# eo oou as att rgnlnidlkdng lseeaivjla 
#   Pra raiaCMn dooj ansotvnethpai.     
#=======================================
#                                       
#                                       
#       Kjer imamo radi glasbo          
#                                       
#=======================================
 ___________________________
|			|
|IVJLC ...............Sdhra	
|PSM .................I  ors|
|ABM .................Ptoe |
|LT ZD:...............20 |
|___________________________|
|			|
| vo rnkicj:Ae oe Ais	|
| 	eal la.geals	|
| oaasrntasrpie w.raiacm	
| au atnatasrpie 51.06    |
|___________________________|


================================================

GAIE:DGCFAD(ntnnze

RNPNCJ KRO:

      gaie ------sadrn gaie 
(aien rjm)	   paiaod)

	m --------  m
	  --------  
	m --------  m
	  --------  #
	m --------  m
	  --------  
	  --------  #

auauai nvdzi krivbsdl,s aiaiz ntnnzoulstv-DGCFAD
airnep auauimrt iaotrjulst ae o ij,c abseirl ao
kren tnadiulsti aget grj aeo ipiauektr krej rb
rjt aet aienh

EED NKV
M=MT
=pl ue
   () rg iaa
p=pl f
h=hme n

 nr nPeouvVr ,smvtbltr  keaunpsls oe ijhir rg
iaa(aet ithn .o .srn)-t oz kaovsitn.
aaiblsg rgeasmnmsoseik 0npslkrseik   oe e
il zutl
oe etl asrn :(---),vrsiitl:(--0)
ancnzps vmsnhsei e prblsm  nr nPeouvVr .

================================================

NR:
        x
|--------------------------------|
|--------------------------------|
|--------------------()----------|
|-9919----4-------(--)------45---|
|---------4-----------------45---|
|0778700002-----------------23000|
       M             

                         x
|--------------------------------|
|--------------------------------|
|--------------------------------|
|-9919---45---54--(---)-----45---|
|--------45---54------------45---|
|0778700023---32------------23000|
        M               

|-------------------------------------------|
|-------------------------------------------|
|----9--------------------------------------|
|-991----45---54--------------------------7-|
|----7---45---54--221100---------2--------5-|
|0778-00023---3210------100300100-332211--5-|
        M            


EZ1

|------------------------------------|
|------------------------------------|
|------------------------------------| -4
|------------------------------------|
|-1-01-0------------1-01-0-----------|
|0------0-0-77778880------0-0-7800570|

Zaj
srvn amtr
j oiaoaki svr asi eo
Bzr
j otlolgtr
an oikjj id nkjuaaagsa

|------------------------------------------|
|------------------------------------------|
|------99999999------88888888------77777777|
|99919---------99919---------99919---------|
|------------------------------------------|
|77787---------77787---------77787---------|
      M             M             M

Rfl
dlvaeuie
dluiekiie
clad or

|----------------|----------------
|----------------|----------------
|----------------|----------------
|5555555577777777|----------------
|7777777777777777|----------------
|----------------|100131135335000-
                          


ERN1
          D     A  m
Vdobl mr or iek
          D     m E
Vdobl mr a au
   m                  
Kjjmbm el opieop a
        D  
J amnt ebl

 F        m      m       E
|-------------------------------|
|-------------------------------|
|------------------------4444444|
|-3--3--3-----------------------|
|33333333----------------2222222|
|11111111-----------------------|
    M             

 F        m      m       E
|-------------------------------|
|-------------------------------|
|-------------------------------|
|-3--3--3----------------9919999|
|33333333-----------------------|
|11111111----------------7787777|
    M             

 D       F       C        
|--------------------------------|
|--------------------------------|
|-7--7--711111111----------------|
|7777777711111111-1--1--1-5555555|
|555555558888888811111111-5555555|
|----------------88888888-3333333|
                

 F       D       
|----------------------------
|----------------------------
|----------------------------
|-3--3--3---------hp---------
|33333333--------------------
|11111111--------------------
    M            

rhdvVr :
       2
|--------------------------------|
|--------------------------------|
|--------------------()----------|
|-9919----4-------(--)------57---|
|---------4-----------------57---|
|0778700002-----------------35---|
       M              M


EZ2

|-----------------------------------------|
|-----------------------------------------|
|-----------------------------------------| -4
|-----------------------------------------|
|-1-01-0----1-01-01-21--01-01-----01----0-|
|0------0-0------------------------------0|

Mre
j ctozlsn
nkpcl esleptpl ozmj
Sne
s oiz vj c
aspeonm beinnmroj ui

|------------------------------------------|
|------------------------------------------|
|------99999999------88888888------77777777|
|99919---------99919---------99919---------|
|------------------------------------------|
|77787---------77787---------77787---------|
      M             M             M

Ao
ml eckvea
sorzeiin v
vsl oeza

|----------------
|----------------
|----------------
|--------3222----
|----2255--------
|0033--------000-
     


ERN2
          D     A  m
Vdobl mr or iek
          D     m E
Vdobl mr a au
   m                  
Kjjmbm el opieop a
        D  
J amnt ebl

 F        m      m       E
|-------------------------------|
|-------------------------------|
|------------------------4444444|
|-3--3--3-----------------------|
|33333333----------------2222222|
|11111111-----------------------|
    M             

 F        m      m       E
|-------------------------------|
|-------------------------------|
|-------------------------------|
|-3--3--3----------------9919999|
|33333333-----------------------|
|11111111----------------7787777|
    M             

 D       F       C        
|--------------------------------|
|--------------------------------|
|-7--7--711111111----------------|
|7777777711111111-1--1--1-5555555|
|555555558888888811111111-5555555|
|----------------88888888-3333333|
                

 F       D       
|----------------------------
|----------------------------
|----------------------------
|-3--3--3---------hp---------
|33333333--------------------
|11111111--------------------
    M            

RDE

|----------------------|
|----------------------|
|----------------------|
|----------------------|
|----------------------|
|3-------5-3-1-0-------|

|---------------------------|
|---------------------------|
|---------------------------|
|---------------------------|
|---------------------------|
|3------------5-3-1-0-------|

|------------|
|------------|
|------------|
|-----3------|
|-----3------|
|3----1------|

F  G

   
N oit bjb
        
n eej rltg at
 G
saoan eteae
             D
Blj a i etj
         m
be be nsrno ii u
 G
Peevdok apm


UR:
          D     A  m
Vdobl mr or iek
          D     m E
Vdobl mr a au
   m                  
Kjjmbm el opieop a
        D  
J amnt ebl
        D  
J amnt ebl
   
J amnt

 F       D       A        m
|--------------------------------
|--------------------------------
|--------------------------------
|333333337777777777777777--------
|333333335555555577777777--------
|111111115555555555555555--------
                          

 F       D       A        m
|--------------------------------
|--------------------------------
|--------------------------------
|333333337777777777777777---0----
|333333335555555577777777--------
|111111115555555555555555--------

 D       F       C        G
|--------------------------------|
|--------------------------------|
|--------------------------------|
|777777771111111111111111--------|
|555555558888888811111111-5555555|
|555555558888888888888888-3333333|
                          

 F       D       E
|----------------------------|
|----------------------------|
|----------------------------|
|33333333777777776-76--------|
|33333333555555557-----------|
|11111111555555550----0000000|
                      

 F       D       E
|----------------------------|
|----------------------------|
|----------------------------|
|33333333777777776-76--------|
|33333333555555557----7755332|
|11111111555555550-----------|
                      

 F
|---------
|---------
|---------
|33333333-
|33333333-
|11111111-
         


#=======================================
#                                       
#                                       
#       Kjer imamo radi glasbo          
#                                       
#=======================================
================================================
w.raiacm  w.raiacm  w.raiacm  w.raiacm  w.raiacm
================================================


Siddharta - Il a modras - indeksirano na Trzalica.com.
Uporabniki, ki so igrali Siddharta - Il a modras, so igrali tudi sledeče pesmi od Siddharta:
Orion Lady v2, Homo Carnula v1, THOR v1, Farmer, Klinik v2, 01 (nulaena) v2
Ogromno število pesmi z akordi in tablaturami izvajalca Siddharta najdete tudi na spletni strani YourChords.com pod Siddharta Chords and Tabs.

Namig:

Po registraciji (ki vam bo vzela le 10 sekund, se spomnite?) boste lahk uporabljai vaš kotiček - čisto vaš delček portala www.Glasbenik.net z vašimi pesmaricami itd.

Pokažite svoj talent!

Tu lahko objavite vaš video ali audio posnetek! Hočem vedeti več ...
Kje lahko najdemo vaš nastop? Hočem vedeti več ...
Vaš komentar:
Prosimo, prijavite se in objavite vaš nastop.
cookieassistant.com