Izvajalci:   A B C Č D E F G H I J K L M N O P Q R S Š T U V W X Y Z Ž
Trenutna ocena: 0
Oceni akorde:
1  2  3  4  5
Transponiraj pesem:
===============================================
w.raiacm  w.raiacm  w.raiacm  w.raiacm  w.raiacm
================================================
#============!!NE PREZRI!!==============
#  Tasrpiaj eoneeaatrai rdtvj jgv ato   
#itrrtcj kab.Ne ae iksneatrkhpai,tme oo 
#dui lseio r cnui zooneaj iasethietrzaj.
#Uoaagaian otl raiaCMj oojn ez sbouoaoi 
# eo oou as att rgnlnidlkdng lseeaivjla 
#   Pra raiaCMn dooj ansotvnethpai.     
#=======================================
#                                       
#                                       
#       Kjer imamo radi glasbo          
#                                       
#=======================================
 ___________________
|		|
|IVJLC ........Sdhra|
|PSM ...........  oe|
|ABM ........ h lobg|
|___________________|
|		|
| Tasrpia lA	|
| eal la.geals	|
| Dmc ta:wwtzlc.o	
|___________________|


EED:
M=MT
=pl ue
~=ltrn
/=sieu
\=siedw

iaa1  rmz
iaa2  oi


GAIE:DGCFAD(ntnnze

RNPNCJ KRO:

      gaie ------sadrn gaie 
(aien rjm)	   paiaod)

	  --------  
	  --------  
	  --------  
	# --------  m

auauai nvdzi krivbsdl,s aiaiz ntnnzoulstv-DGCFAD
airnep auauimrt iaotrjulst ae o ij,c abseirl ao
kren tnadiulsti aget grj aeo ipiauektr krej rb
rjt aet aienh

================================================
w.raiacm  w.raiacm  w.raiacm  w.raiacm  w.raiacm
================================================


NR: 0:0-0:0

iaa1
|--------|
|--------|
|--------| -1x
|--2-2---|
|-2-2-2-2|
|0-----0-|
 


iaa2 ( ea fko)
|-------------------------|
|----7878787--------------|
|--89-------98989898------|
|79-----------------1-----|
|-------------------------|
|-------------------------|

|-----------------------------
|---------------01-01-31-01---
|-----------------------------
|9791-\-----------------------
|-----------------------------
|-----------------------------

|---------81----------------------|
|---1-21-2----21-21---------------|
|1-2----------------21-21--11-1989|
|---------------------------------|
|---------------------------------|
|---------------------------------|


EZ1 (02  12)

iaa1            x
 E               A                Cm   
|--------------------------------|---------|
|--------------------------------|---------|
|--------------------------------|6--------|
|--2-2-----2-2------6-6----7-7-6-|6--------|
|-2-2-2-2-2-2-2-2-79-9--7-7-7-7-7|4--------|
|0-----0-0-----0-5-----5-5-------|---------|
   ~~~~~~~

                     
YsedyIcudhv oesm oe
                   
adtdyImgtee i tal
                             A
I' uhaqitadeoinldnei h anbtIko,
                          A
ta iapa ssmtigyud hnImnta oe
   #                       B
I os' atrnwa oga ecnsilhl ahohrshns


iaa1
 E               A
|--------------------------------|
|--------------------------------|
|--------------------------------|
|--2-2-----2-2------6-6----7-7-6-|
|-2-2-2-2-2-2-2-2-79-9--7-7-7-7-7|
|0-----0-0-----0-5-----5-5-------|
 

iaa2 ( ea fko)
 E               A
|--------------------------------|
|87-7----------------------------|
|--9-98--------------------------|
|------1--097-----6-6-654547-7-6-|
|----------------0-9-9------7-7-7|
|--------------------------------|


iaa1            x
 E               A                Cm   
|--------------------------------|---------|
|--------------------------------|---------|
|--------------------------------|6--------|
|--2-2-----2-2------6-6----7-7-6-|6--------|
|-2-2-2-2-2-2-2-2-79-9--7-7-7-7-7|4--------|
|0-----0-0-----0-5-----5-5-------|---------|
   ~~~~~~~

                      A
Isen ry u oehn sntO.
                             
Isen le huhta' o h k hudlo.
                            A
Aottesproi anta sisd fu ecmli,
                          A
btwa h el eaettels ob rvnisn.
   #                       B
I os' atrnwa oga ecnsilhl ahohrshnso h ero lo


ERN1 (12  14)

iaa1 an  kri
 A B E Cm
|0---0---|
|2-4-0-5-|
|2-4-1-6-|
|2-4-2-6-|
|0-2-2-4-|
|----0---|

aooektr:
 A     B       E     Cm
|---------------------------|
|---------------------------|
|---------------------------|
|7--7779----9992--2226------|
|7--7779----9992--2224--4444|
|5--5557----7770--0004--4444|
                        

 A     B       E     Cm
|---------------------------|
|---------------------------|
|---------------------------|
|7--7779----9992-----6--6666|
|7--7779----9992--2224--4444|
|5--5557----7770--0004--4444|
                  

 A     B       E
|--------------------|
|--------------------|
|--------------------|
|7--7779----9992-----|
|7--7779----9992--222|
|5--5557----7770--000|
                  

A      B
Da n eiae,
   E        #
yu oeo ukn Gd,
        B     E  #
dm n ap oo en uehr.
A     B
Nvretranhm
             Cm
h' iealr fhmnat
A              
Yd o edmr  oyune oe


EZ2 (15  21)

iaa1          4
 E              A               Cm     
|------------------------------|-------------|
|------------------------------|-------------|
|------------------------------|-------------|
|------------------------------|--2----------|
|7777-7---------7777-7---------|-4-----------|
|------------------------------|4------------|


                     
YsedyIcudhv oesm oe
                   
adtdyImgtee i tal
                             A
I' uhaqitadeoinldnei h anbtIko,
                          A
ta iapa ssmtigyud hnImnta oe
Cm       
Iko o ildsper


ERN2 (21  34)

b iai
 A     B       E     Cm
|---------------------------|
|---------------------------|
|---------------------------|
|7--7779----9992-----6--6666|
|7--7779----9992--2224--4444|
|5--5557----7770--0004--4444|
                  

 A     B       E     Cm
|---------------------------|
|---------------------------|
|---------------------------|
|7--7779----9992--2226------|
|7--7779----9992--2224--4444|
|5--5557----7770--0004--4444|
                        

 A     B       E     Cm
|---------------------------|
|---------------------------|
|---------------------------|
|7--7779----9992-----6--6666|
|7--7779----9992--2224--4444|
|5--5557----7770--0004--4444|
                  

 A     B       E     Cm
|-------------------------|
|-------------------------|
|-------------------------|
|7--7779----9992-----6----|
|7--7779----9992--2224----|
|5--5557----7770--0004----|
                   ~~~~

A      B
Da n eiae,
   E        #
yu oeo ukn Gd,
        B     E  #
dm n ap oo en uehr.
A     B
Nvretranhm
             Cm
h' iealr fhmnat
A                  #
Yd o edmr  oyune oe


aozceKtr .zaod:
 A B E Cm
|0---0---|
|2-4-0-5-|
|2-4-1-6-|
|2-4-2-6-|
|0-2-2-4-|
|----0---|


A      B
Da n eiae,
   E        #
yu oeo ukn Gd,
        B     E  #
dm n ap oo en uehr.
A     B
Nvretranhm
             Cm
h' iealr fhmnat
       >           # --o unpe ptoektr ge auauosoa)
Yd o edmr  oyune oe


b iai
       B       E     Cm
|---------------------------|
|---------------------------|
|---------------------------|
|------9----9992-----6--6666|
|------9----9992--2224--4444|
|------7----7770--0004--4444|
                  

 A     B       E     Cm
|---------------------------|
|---------------------------|
|---------------------------|
|7--7779----9992-----6--6666|
|7--7779----9992--2224--4444|
|5--5557----7770--0004--4444|
                  

 A     B       E     Cm
|---------------------------|
|---------------------------|
|---------------------------|
|7--7779----9992--2226------|
|7--7779----9992--2224--4444|
|5--5557----7770--0004--4444|
                        

 A     B       E     Cm
|---------------------------|
|---------------------------|
|---------------------------|
|7--7779----9992-----6--6666|
|7--7779----9992--2224--4444|
|5--5557----7770--0004--4444|
                  

                   2
 A     B        E
|--------------|--------
|--------------|--------
|--------------|--------
|7--7779----999|2-------
|7--7779----999|2--222--
|5--5557----777|0--0004-
                   


                   #
Yd o edmr  oyune oe
A      B
Da n eiae,
   E        #
yu oeo ukn Gd,
        B     E  #
dm n ap oo en uehr.
A     B
Nvretranhm
             Cm
h' iealr fhmnat
A              
Yd o edmr  oyune oe
yd o edmr,yd o edmr?


UR: 0:3-0:0

iaa2 ( ea fko)
|-------------------------|
|----7878787--------------|
|--89-------98989898------|
|79-----------------1-----|
|-------------------------|
|-------------------------|

|-----------------------------
|---------------01-01-31-01---
|-----------------------------
|9791-\-----------------------
|-----------------------------
|-----------------------------

|---------81----------------------|
|---1-21-2----21-21---------------|
|1-2----------------21-21--11-1989|
|---------------------------------|
|---------------------------------|
|---------------------------------|


================================================
w.raiacm  w.raiacm  w.raiacm  w.raiacm  w.raiacm
================================================


Siddharta - Y More - indeksirano na Trzalica.com.
Uporabniki, ki so igrali Siddharta - Y More, so igrali tudi sledeče pesmi od Siddharta:
Orion Lady v2, Homo Carnula v1, THOR v1, Farmer, 01 (nulaena) v2, Klinik v2
Ogromno število pesmi z akordi in tablaturami izvajalca Siddharta najdete tudi na spletni strani YourChords.com pod Siddharta Chords and Tabs.

Namig:

Če se vam niti ne sanja, kako prijeti akord "Absus4" in podobne eksote, se z miško zapeljite nad akord in prikazal se vam bo diagram akorda.

Pokažite svoj talent!

Tu lahko objavite vaš video ali audio posnetek! Hočem vedeti več ...
Kje lahko najdemo vaš nastop? Hočem vedeti več ...
Vaš komentar:
Prosimo, prijavite se in objavite vaš nastop.
cookieassistant.com