Izvajalci:   A B C Č D E F G H I J K L M N O P Q R S Š T U V W X Y Z Ž
_______________________________________
	|					|
	| IZVAJALEC: ................... D-fact |
	| PESEM: ................ Vse to ti veš |
	| ALBUM: .......................... Čas |
	|_______________________________________|
	|					|
	|   Tabulatura				|
	|   Transkripcija: Aleš Godec (AliAs)	|
	|   email: alias.ag@email.si		|
	|   Domača stran: www.trzalica.com	|
	|_______________________________________|


D-facti imajo dva kitarista. Eden ima Sedemstrunsko (B E A D G B E), drugi pa ima
šestrunsko  kitaro (B E A D G B  ali  B F# B E A C#). To tablaturo sem napisal za
standardno uglasitev, s tem da pritrdim kapodaster na drugo polje
(torej  F# B  E  A  C# F# - kapodaster na drugem polju)!!!

LEGENDA:
	 = palm muted - narahlo zaduši strune
	~ = let ring - strune pusti zveneti
	M = MUTE - zaduši strune


INTRO: 6x
F#|------------------------------------------------|
C#|---------------------------------------77777777-|
A |---------------------------------------77777777-|
E |---------------------------------------55555555-|
B |-2--2--5-2--5-2--2--5-2--5-2--2--5-2------------|
F#|------------------------------------------------|
     M       M    M       M    M       M


VERSE 1:
F#|--------------------------------------------------------------------------------------------------------------------------|
C#|---------------------7---------5------------------7---------5------------------7---------5-------------------7---------5--|
A |-------------------7---7----6-------------------7---7----6-------------------7---7----6--------------------7---7----6-----|
E |-----------------5--------4-------------------5--------4-------------------5--------4--------------------5--------4-------|
B |-2--2--2-2--2---------------------2-2--2-2----------------------2--2--2---------------------2--2--2-2---------------------|
F#|-2--2--2-2--2---------------------2-2--2-2----------------------2--2--2---------------------2--2--2-2---------------------|
                                                        M   M  M  M                        

Pre-refren 1:
    |---------3x--------|
F#|-----------------2----------------------|
C#|---------5--------------------5---------|
A |-----7--------------------7-------------|
E |-5-7---------4--------5-7---------4-----|
B |----------------------------------------|
F#|----------------------------------------|


REFREN 1:
Riff: 2x                                              vse to ti veš          vse to ti veš
F#|--------------------------------------------------2--2--2-2--2-2--2-2-2--2--2--2-2--2-2--2-2-2-|
C#|--------------------------------------------------7--7--7-7--7-7--7-7-7--7--7--7-7--7-7--7-7-7-|
A |--------------------------------------------------7--7--7-7--7-7--7-7-7--7--7--7-7--7-7--7-7-7-|
E |--------------------------------------------------5--5--5-5--5-5--5-5-5--2--2--2-2--2-2--2-2-2-|
B |-2---2-2---2-4-2---2-4-5-2---2-2---2-4-4--5-5-5-5-5--5--5-5--5-5--5-5-5--2--2--2-2--2-2--2-2-2-|
F#|-2---2-2---2-4-2---2-4-5-2---2-2---2-4-4--5-5-5-5----------------------------------------------|
                                

Pre-verse 2:
    |---------------------2x----------------------|
F#|-------------------------------------------------------------------------------------|
C#|---------------------------------------77777777--------------------------------------|
A |---------------------------------------77777777--------------------------------------|
E |---------------------------------------55555555--------------------------------------|
B |-2--2--5-2--5-2--2--5-2--5-2--2--5-2------------2--2--5-2--5-2--2--5-2--5-2--2--5-2--|
F#|-------------------------------------------------------------------------------------|
     M       M    M       M    M       M            M       M    M       M    M       M


VERSE 2:
F#|--------------------------------------------------------------------------------------------------------------------------|
C#|---------------------7---------5------------------7---------5------------------7---------5-------------------7---------5--|
A |-------------------7---7----6-------------------7---7----6-------------------7---7----6--------------------7---7----6-----|
E |-----------------5--------4-------------------5--------4-------------------5--------4--------------------5--------4-------|
B |-2--2--2-2--2---------------------2-2--2-2----------------------2--2--2---------------------2--2--2-2---------------------|
F#|-2--2--2-2--2---------------------2-2--2-2----------------------2--2--2---------------------2--2--2-2---------------------|
                                                        M   M  M  M                        


Pre-refren 2:
    |---------3x--------|
F#|-----------------2----------------------|
C#|---------5--------------------5---------|
A |-----7--------------------7-------------|
E |-5-7---------4--------5-7---------4-----|
B |----------------------------------------|
F#|----------------------------------------|


REFREN 2:
Riff: 4x                                              vse to ti veš          vse to ti veš
F#|--------------------------------------------------2--2--2-2--2-2--2-2-2--2--2--2-2--2-2--2-2-2-|
C#|--------------------------------------------------7--7--7-7--7-7--7-7-7--7--7--7-7--7-7--7-7-7-|
A |--------------------------------------------------7--7--7-7--7-7--7-7-7--7--7--7-7--7-7--7-7-7-|
E |--------------------------------------------------5--5--5-5--5-5--5-5-5--2--2--2-2--2-2--2-2-2-|
B |-2---2-2---2-4-2---2-4-5-2---2-2---2-4-4--5-5-5-5-5--5--5-5--5-5--5-5-5--2--2--2-2--2-2--2-2-2-|
F#|-2---2-2---2-4-2---2-4-5-2---2-2---2-4-4--5-5-5-5----------------------------------------------|
                                


BRIDGE:

F#|-------------------------------------------------------------------------------------|
C#|-------------------------------------------------------------------------------------|
A |-------------------------------------------------------------------------------------|
E |-4--------------------3--------------------4--------------------3-3------------------|
B |-2--------------------3--------------------2--------------------3-3------------------|
F#|-2--------------------1--------------------2--------------------1-1------------------|
     ~~~~~~~~~~~~~~~~~~~~ ~~~~~~~~~~~~~~~~~~~~ ~~~~~~~~~~~~~~~~~~~~   ~~~~~~~~~~~~~~~~~~


OUTRO:
    |----11x---|
F#|-------------------------|
C#|------------------7------|
A |------------------7------|
E |------------------5------|
B |-2--2--5-2--5-2----------|
F#|-------------------------|
             M  ~~~~~~

F#|-----------------------------------------------------|
C#|----------------------------------------------7------|
A |----------------------------------------------7------| --2x
E |----------------------------------------------5------|
B |-2--2--5-2--5-2--2--5-2--5-2--2--5-2--5-2--2---------|
F#|-----------------------------------------------------|
     M       M    M       M    M       M    M     ~~~~~~

F#|-------------------------------------------------------------------------------------------------------|
C#|----------------------------------------------7---------------------------------------------------7777-|
A |----------------------------------------------7---------------------------------------------------7777-|
E |----------------------------------------------5---------------------------------------------------5555-|
B |-2--2--5-2--5-2--2--5-2--5-2--2--5-2--5-2--2---------2--2--5-2--5-2--2--5-2--5-2--2--5-2--5-2--2-------|
F#|-2--2--5-2--5-2--2--5-2--5-2--2--5-2--5-2--2---------2--2--5-2--5-2--2--5-2--5-2--2--5-2--5-2--2-------|
                                                  ~~~~~~                                                 M


D-Fact - Vse to ti veš - indeksirano na Trzalica.com.
Uporabniki, ki so igrali D-Fact - Vse to ti veš, so igrali tudi sledeče pesmi od D-Fact:
Vse ti enkrat vrne se nazaj, Love song, Mavrične melodije, album ČAS, Poglej mamici v oči,
Daj dinar

Namig:

Če je pesem zapisana previsoko ali prenizko na lestvici, da bi lahko zraven nje udobno peli, vam priporočamo, da jo transponirate. Preprosto kliknite željeno opcijo na desni strani besedila in vsi akordi se bodo transponirali v nov ključ.

Pokažite svoj talent!

Tu lahko objavite vaš video ali audio posnetek! Hočem vedeti več ...
Kje lahko najdemo vaš nastop? Hočem vedeti več ...
Vaš komentar:
Prosimo, prijavite se in objavite vaš nastop.
cookieassistant.com