Izvajalci:   A B C Č D E F G H I J K L M N O P Q R S Š T U V W X Y Z Ž
_______________________________________
	|					|
	| IZVAJALEC: ................... D-fact |
	| PESEM: ....... Čas ameriške dekadence |
	| ALBUM: .......................... Čas |
	|_______________________________________|
	|					|
	|   Tabulatura				|
	|   Transkripcija: Aleš Godec (AliAs)	|
	|   email: alias.ag@email.si		|
	|   Domača stran: www.trzalica.com	|
	|_______________________________________|


D-facti imajo dva kitarista. Eden ima Sedemstrunsko (B E A D G B E), drugi pa ima
šestrunsko  kitaro (B E A D G B  ali  B F# B E A C#). To tablaturo sem napisal za
standardno uglasitev, s tem da pritrdim kapodaster na drugo polje
(torej  F# B  E  A  C# F# - kapodaster na drugem polju)!!!

LEGENDA:
	 = palm muted - narahlo zaduši strune
	~ = let ring - strune pusti zveneti
	M = MUTE - zaduši strune
	...= nadaljevanje pickinga (v tablaturi)
        ( )= druga kitara

INTRO:

    vsi za enega, nobeden za nobenega...                       STOOOP!!
    |--------4x------||-------3x-------|
F#|------------------------------------------------------------------|
C#|------------------------------------------------------------------|
A |------------------------------------------------------------------|
E |------------------------------------------------------------------|
B |-4-4----4-4--------4-4-4444-4-4444444--4--4--2-4-5-4--4-2-4-5--5--|
F#|-4-4----4-4--------4-4----4-4----------4--4--2-4-5-4--4-2-4-5--5--|
       M      M          M      M

F#|----------------------------|
C#|----------------------------|
A |----------------------------| --8x
E |----------------------------|
B |-4--4--2-4-5-4--4-2-4-5--5--|
F#|-4--4--2-4-5-4--4-2-4-5--5--|


VERSE 1:

Med bushevim govorom:          |------3x------|                   |------2x------|
F#|-12-12-12-12-12-12------13---------------------------------------------------------------------------------------|
C#|-----------------------------------------------------------------------------------------------------------------|
A |-----------------------------------------------------------------------------------------------------------------|
E |--------------------------------------------6----------------------------------6---------------------------------|
B |----------------------------4-4-2-4--4-4----5--4-4-2-4--4-4----4-4-2-4--4-4----5--4-4-2-4--4-4----4-4-2-4--4-4---|
F#|--------------------------------------------4--4-4-----------------------------4--4-4----------------------------|
                     ......  M  M     M  M M           M  M M    M     M  M M           M  M M    M     M  M M

       TIIŠIINAA TIIŠIINAA!!!                       |----------6x----------|   GARANCIJA ZA BOGASTVO!!!!!
F#|-12-12-12-12-12-12------13--------------(11-11-11)--------------(11-11-11)--------------------------|
C#|----------------------------------------------------------------------------------------------------|
A |----------------------------------------------------------------------------------------------------|
E |-------------------------------------------------6--------------------------------------------------|
B |----------------------------4-4-2-4--4-4---------5--4-4-2-4--4-4---------4--4--2-4-5-4--4-2-4-5--5--|
F#|----------------------------4-4-2-4--4-4---------4--4-4-2-4--4-4---------4--4--2-4-5-4--4-2-4-5--5--|
                     ......                            

REFREN 1:

    |------------8x-----------|
F#|-------------------------------------|
C#|-------------------------------------|
A |-------------------------------------|
E |-------------------------------------|
B |-4--4--2-4-5-4--4-2-4-5--5--5--------|
F#|-4--4--2-4-5-4--4-2-4-5--5--5--------|
                                ~~~~~~~~

VERSE 2:
                  |------7x------|      ali oni ali mi...         thank you...
F#|------------------------------------------------------------------|
C#|------------------------------------------------------------------|
A |-----66667777---------66667777------------------------------------|
E |---------------6--------------------------------------------------|
B |-4-4-44445555--5--4-4-44445555----4-4--4-4-4----4-4--4--4--4-4----|
F#|-4-4-----------4--4-4-------------4-4--4-4-4----4-4--4--4--4-4----|
              M              M    M M  M M M    M M  M  M    M


REFREN 3:

F#|----------------------------|
C#|----------------------------|
A |----------------------------| --8x
E |----------------------------|
B |-4--4--2-4-5-4--4-2-4-5--5--|
F#|-4--4--2-4-5-4--4-2-4-5--5--|

  čas je ameriške dekadence...
    |------------7x-----------|
F#|--------------------------------------------|
C#|--------------------------------------------|
A |--------------------------------------------|
E |--------------------------------------------|
B |-4--4--2-4-5-4--4-2-4-5--5--4-4--4--4--4-4--|
F#|-4--4--2-4-5-4--4-2-4-5--5--4-4--4--4--4-4--|
     M                    M     M M  M  M    M


D-Fact - Čas ameriške dekadence - indeksirano na Trzalica.com.
Uporabniki, ki so igrali D-Fact - Čas ameriške dekadence, so igrali tudi sledeče pesmi od D-Fact:
Vse ti enkrat vrne se nazaj, Love song, Mavrične melodije, album ČAS, Poglej mamici v oči,
Daj dinar

Namig:

Preizkusite AutoScroller ... Tako se lahko povsem posvetite preigravanju kitare, medtem ko se bo besedilo z akordi avtomatsko pomikalo po ekranu. S pomočjo miške oziroma tipkovnice (tipke 0, 1, 2 in 3) lahko izbirate med različnimi hitrostmi premikanja besedila.

Pokažite svoj talent!

Tu lahko objavite vaš video ali audio posnetek! Hočem vedeti več ...
Kje lahko najdemo vaš nastop? Hočem vedeti več ...
Vaš komentar:
Prosimo, prijavite se in objavite vaš nastop.
cookieassistant.com