Izvajalci:   A B C Č D E F G H I J K L M N O P Q R S Š T U V W X Y Z Ž
================================================================================================
www.trzalica.com    www.trzalica.com    www.trzalica.com    www.trzalica.com    www.trzalica.com
================================================================================================
	 _______________________________________
	|					|
	| IZVAJALEC: ................... D-fact |
	| PESEM: ....... Prihod nove generacije |
	| ALBUM: ............... Fashion victim |
	|_______________________________________|
	|					|
	|   Tabulatura				|
	|   Transkripcija: Aleš Godec (AliAs)	|
	|   email: alias.ag@email.si		|
	|   Domača stran: www.trzalica.com	|
	|_______________________________________|


D-facti imajo dva kitarista. Eden ima Sedemstrunsko (B E A D G B E), drugi pa ima
šestrunsko kitaro (B E A D G B  ali  B F# B E A C#). To tabulaturo sem napisal za
drop-D uglasitev (D A D G B e)!!!

LEGENDA:
	M = MUTE - zaduši strune
	~ = let ring - strune pusti zveneti


INTRO & VERZ 1:
e|-----------------------------------|
B|-----------------------------------|
G|-----------------------------------|
D|-----------------------------------|
A|----------0--0---------------------|
D|-0--0------------3--3----6--6------|


REFREN 1:
Prihod nove generacije!!!...
e|---------------------------------------------|
B|---------------------------------------------|
G|---------------------------------------------|  --3x
D|-0---0---0--0-0-0------8---8---8--8-8-8------|
A|-0---0---0--0-0-0------8---8---8--8-8-8------|
D|-0---0---0--0-0-0------8---8---8--8-8-8------|
                    M                     M

To smo mi...
e|------------------------------|
B|------------------------------|
G|------------------------------|
D|-0---0---0--0-0-0------8------|
A|-0---0---0--0-0-0------8------|
D|-0---0---0--0-0-0------8------|
                    M      M

...misli... ...svoje misli...
e|------------------------------------|
B|------------------------------------|
G|------------------------------------|
D|-0----------------0--------0--------|
A|-0----------------0--------0--------|
D|-0----------------0--------0--------|
    ~~~~~~~~~~~~~~~~ ~~~~~~~~ ~~~~~~~~


VERZ 2:
e|-----------------------------------|
B|-----------------------------------|
G|-----------------------------------|
D|-----------------------------------|
A|----------0--0---------------------|
D|-0--0------------3--3----6--6------|


REFREN 2:
Prihod nove generacije!!!...
e|---------------------------------------------|
B|---------------------------------------------|
G|---------------------------------------------|  --3x
D|-0---0---0--0-0-0------8---8---8--8-8-8------|
A|-0---0---0--0-0-0------8---8---8--8-8-8------|
D|-0---0---0--0-0-0------8---8---8--8-8-8------|
                    M                     M

To smo mi...
e|--------------------------------------|
B|--------------------------------------|
G|--------------------------------------|
D|-0---0---0--0-0-0------8---8---8------|
A|-0---0---0--0-0-0------8---8---8------|
D|-0---0---0--0-0-0------8---8---8------|
                    M


Prihod nove generacije!!!...
e|---------------------------------------------|
B|---------------------------------------------|
G|---------------------------------------------|  --3x
D|-0---0---0--0-0-0------8---8---8--8-8-8------|
A|-0---0---0--0-0-0------8---8---8--8-8-8------|
D|-0---0---0--0-0-0------8---8---8--8-8-8------|
                    M                     M

To smo mi...
e|------------------------------|
B|------------------------------|
G|------------------------------|
D|-0---0---0--0-0-0------8------|
A|-0---0---0--0-0-0------8------|
D|-0---0---0--0-0-0------8------|
                    M      M


OUTRO:
e|-----------------------------------|
B|-----------------------------------|
G|-----------------------------------|
D|-----------------------------------|
A|----------0--0---------------------|
D|-0--0------------3--3----6--6------|


D-Fact - Prihod nove generacije v2 - indeksirano na Trzalica.com.
Uporabniki, ki so igrali D-Fact - Prihod nove generacije v2, so igrali tudi sledeče pesmi od D-Fact:
Vse ti enkrat vrne se nazaj, Love song, Mavrične melodije, album ČAS, Poglej mamici v oči,
Daj dinar

Namig:

Preizkusite AutoScroller ... Tako se lahko povsem posvetite preigravanju kitare, medtem ko se bo besedilo z akordi avtomatsko pomikalo po ekranu. S pomočjo miške oziroma tipkovnice (tipke 0, 1, 2 in 3) lahko izbirate med različnimi hitrostmi premikanja besedila.

Pokažite svoj talent!

Tu lahko objavite vaš video ali audio posnetek! Hočem vedeti več ...
Kje lahko najdemo vaš nastop? Hočem vedeti več ...
Vaš komentar:
Prosimo, prijavite se in objavite vaš nastop.
cookieassistant.com