Izvajalci:   A B C Č D E F G H I J K L M N O P Q R S Š T U V W X Y Z Ž
================================================================================================
www.trzalica.com    www.trzalica.com    www.trzalica.com    www.trzalica.com    www.trzalica.com
================================================================================================
	 _______________________________________
	|					|
	| IZVAJALEC: ................... D-fact |
	| PESEM: .......... Poglej mamici v oči |
	| ALBUM: ............... Fashion Victim |
	|_______________________________________|
	|					|
	|   Tabulatura				|
	|   Transkripcija: Aleš Godec (AliAs)	|
	|   email: alias.ag@email.si		|
	|   Domača stran: www.trzalica.com	|
	|_______________________________________|


D-facti imajo dva kitarista. Eden ima Sedemstrunsko (B E A D G B E), drugi pa ima
šestrunsko  kitaro (B E A D G B  ali  B F# B E A C#). To tablaturo sem napisal za
standardno uglasitev, s tem da pritrdim kapodaster na drugo polje, številke prečk
(tonov, polj,...) pa sem pustil enake kot na standardni uglasitvi - številka 2
je torej prazna struna (ker je kapodaster na drugem polju).
(torej  F# B  E  A  C# F# - kapodaster na drugem polju)!!!

LEGENDA:
	 = palm muted - narahlo zaduši strune
	~ = let ring - strune pusti zveneti
	M = MUTE - zaduši strune
	/ = slide up
	()= tone v oklepaju ni potrebno trzniti


INTRO:
F#|-------------------------------------------------|
C#|-------------------------------------------------|
A |-------------------------------------------------|  --2x
E |-------------------------------------------------|
B |---------2-----------2-----------2---------------|
F#|-7--7--7-2---7--7--7-2---7--7--7-2---8--8--5-5---|

F#|-------------------------------------------------|
C#|-------------------------------------------------|
A |-------------------------------------------------|  --4x
E |-9--9--9-----9--9--9-----9--9--9-----10-10-9-9---|
B |-9--9--9-2---9--9--9-2---9--9--9-2---10-10-7-7---|
F#|-7--7--7-2---7--7--7-2---7--7--7-2---8--8--5-5---|
      M           M           M           M


VERZ 1:

F#|-----------------------------------------------------|
C#|-----------------------------------------------------|
A |-----------------------------------------------------|  --2x
E |-----------------------------------------------------|
B |-----------------------------------------------------|
F#|-7-7-7-7-7--------7-8-8-8-8-7-7-7-7-7--------5-5-5-5-|
                                    

F#|-------------------------------------------------------------|
C#|-------------------------------------------------------------|
A |-------------------------------------------------------------|  --4x
E |-------------------------------------------------------------|
B |-------------------------------------------------------------|
F#|-7-7-7-7-7-7--7--7-----8-8-8-8-7-7-7-7-7-7--7--7-----5-5-5-5-|
                M  M  M                   M  M  M      

Ok Trkaj še ena šansa, mikrofon je frej...
F#|------------------------------------------|
C#|------------------------------------------|
A |------------------------------------------|
E |------------------------------------------|
B |-----------------------------------3///16-|
F#|-9-9--9-8-9-9--9-8-9-9-9-8-9-9-9-8-3///16-|


REFREN 1:

F#|-------------------------------------------------|
C#|-------------------------------------------------|
A |-------------------------------------------------|  --3x
E |-9--9--9-----9--9--9-----9--9--9-----10-10-9-9---|
B |-9--9--9-2---9--9--9-2---9--9--9-2---10-10-7-7---|
F#|-7--7--7-2---7--7--7-2---7--7--7-2---8--8--5-5---|
      M           M           M           M

F#|---------------------------------------|
C#|---------------------------------------|
A |---------------------------------------|
E |-9--9--9-----9--9--9-----9--9--9-----10|
B |-9--9--9-2---9--9--9-2---9--9--9-2---10|
F#|-7--7--7-2---7--7--7-2---7--7--7-2---8-|
      M           M           M           M


VERZ 2:

F#|-----------------------------------------------------|
C#|-----------------------------------------------------|
A |-----------------------------------------------------|  --2x
E |-----------------------------------------------------|
B |-----------------------------------------------------|
F#|-7-7-7-7-7--------7-8-8-8-8-7-7-7-7-7--------5-5-5-5-|
                                    

F#|-------------------------------------------------------------|
C#|-------------------------------------------------------------|
A |-------------------------------------------------------------|  --4x
E |-------------------------------------------------------------|
B |-------------------------------------------------------------|
F#|-7-7-7-7-7-7--7--7-----8-8-8-8-7-7-7-7-7-7--7--7-----5-5-5-5-|
                M  M  M                   M  M  M      

F#|---------------------------|
C#|---------------------------|
A |---------------------------|  --4x
E |---------------------------|
B |---------------------------|
F#|-9-9--9-8-9-9--9-8-9-9-9-8-|


REFREN 1:

F#|-------------------------------------------------|
C#|-------------------------------------------------|
A |-------------------------------------------------|  --4x
E |-9--9--9-----9--9--9-----9--9--9-----10-10-9-9---|
B |-9--9--9-2---9--9--9-2---9--9--9-2---10-10-7-7---|
F#|-7--7--7-2---7--7--7-2---7--7--7-2---8--8--5-5---|
      M           M           M           M


SOLO:

Riff med solom (kitara 1):
F#|----------------------------------|
C#|----------------------------------|
A |----------------------------------|  --4x
E |-------------4-----------------4--|
B |-4--7--2--2--4--4--4-4--4-4--4-4--|
F#|-4--7--2--2--2--2--2-2--2-2--2-2--|
                           

Solo (kitara 1):
F#|-2-------(2)----------7-7-7-7-7-----------------------7---9--7-----9--7------|
C#|-7--------5---5---5---------------5--7-5--7-5--7-5--------------9-------9----|
A |-----------------------------------------------------------------------------|
E |-----------------------------------------------------------------------------|
B |-----------------------------------------------------------------------------|
F#|-----------------------------------------------------------------------------|

F#|--------9-7-9--------------------------------19-------21-------------------|
C#|-9--7-9--------7--5-----------------/17---------(19)--------19-------------|
A |---------------------6--4-----4---------(20)-------------------------------|
E |---------------------------6----4------------------------------------------|
B |---------------------------------------------------------------------------|
F#|---------------------------------------------------------------------------|


OUTRO:

Poglej...
F#|------------------------|
C#|------------------------|
A |------------------------|  --2x
E |------------------------|
B |-4---2---4---3---4--2---|
F#|-4---2---4---3---4--2---|
      M   M   M   M

F#|-------------------------------------------------|
C#|-------------------------------------------------|
A |-------------------------------------------------|
E |-------------------------------------------------|
B |-4---2---4---3---4--2--2--2-2--2--2-2--2--2-2-2--|
F#|-4---2---4---3---4--2--2--2-2--2--2-2--2--2-2-2--|
      M   M   M   M         M    M  M    M  M

F#|------------------------|
C#|------------------------|
A |------------------------|  --7x
E |------------------------|
B |-4---2---4---3---4--2---|
F#|-4---2---4---3---4--2---|

F#|------------------------------|
C#|------------------------------|
A |------------------------------|
E |------------------------------|
B |-4---2---4---3-----2----------|
F#|-4---2---4---3-----2----------|
                    M  ~~~~~~~~~~


D-Fact - Poglej mamici v oči - indeksirano na Trzalica.com.
Uporabniki, ki so igrali D-Fact - Poglej mamici v oči, so igrali tudi sledeče pesmi od D-Fact:
Vse ti enkrat vrne se nazaj, Love song, Mavrične melodije, album ČAS, Daj dinar,
Čas ameriške dekadence

Namig:

Če si vzamete 10 sekund za registracijo, boste lahko komentirali ter ocenjevali vse akorde in tablature. Prav tako boste lahko komentirali in ocenjevali video posnetke drugih kitaristov - in seveda boste tudi sami lahko objavili video posnetek, kako zaigrate vašo najljubšo pesem.
Kliknite tukaj in se nam pridružite!

Pokažite svoj talent!

Tu lahko objavite vaš video ali audio posnetek! Hočem vedeti več ...
Kje lahko najdemo vaš nastop? Hočem vedeti več ...
Vaš komentar:
Prosimo, prijavite se in objavite vaš nastop.
cookieassistant.com