Izvajalci:   A B C Č D E F G H I J K L M N O P Q R S Š T U V W X Y Z Ž
================================================================================================
www.trzalica.com    www.trzalica.com    www.trzalica.com    www.trzalica.com    www.trzalica.com
================================================================================================
	 _______________________________________
	|					|
	| IZVAJALEC: ................... D-fact |
	| PESEM: .................. Ne verjamem |
	| ALBUM: ............... Fashion victim |
	|_______________________________________|
	|					|
	|   Tabulatura				|
	|   Transkripcija: Aleš Godec (AliAs)	|
	|   email: alias.ag@email.si		|
	|   Domača stran: www.trzalica.com	|
	|_______________________________________|


D-facti imajo dva kitarista. Eden ima Sedemstrunsko (B E A D G B E), drugi pa ima
šestrunsko kitaro (B E A D G B  ali  B F# B E A C#). To tabulaturo sem napisal za
standardno uglasitev!!!

LEGENDA:
	M = MUTE - zaduši strune
	 = palm muted - narahlo zaduši strune
	~ = let ring - strune pusti zveneti
	/ = slide up
	\ = slide down
	 = harmonični toni
	^- = Bend up in release (za 1/2 tona)

INTRO:

Kitara 1:
e|-------------------------------------------------------------|
B|-------------------------------------------------------------|
G|-------------------------------------------------------------|
D|-4---------------------------4-4-----------------------------|
A|-2---------------------------2-2-----------------------------|
E|-2---------------------------2-2-----------------------------|
    ~~~~~~~~~~~~~~~~~~~~~~~~~~~   ~~~~~~~~~~~~~~~~~~~~~~~~~~~~~

Kitara 2:
e|-----------------12----------------------------12------------|
B|-12----7------------------7----12----7------------------7----|
G|------------5----------5------------------5----------5-------|
D|-------------------------------------------------------------|
A|-------------------------------------------------------------|
E|-------------------------------------------------------------|
                                                


VERZ 1:
Tiiii-hooo seeeem...

Obe kitari:
e|-----------------------------|
B|-----------------------------|
G|-----------------------------|  --4x
D|-----------------------------|
A|-2-2-2-2-2----2-2-2-2-2------|
E|-2-2-2-2-2----2-2-2-2-2------|

Sam nemir...

Kitara 1:
                          |--------2x---------|
e|-----------------------------------------------------------------|
B|-----------------------------------------------------------------|
G|-----------------------------------------------------------------|
D|-----------------------------------------------------------------|
A|-2----2----2----2---2-2-----2----2----2---2-2-----2----2----2----|
E|-2----2----2----2---2-2-----2----2----2---2-2-----2----2----2----|
                                                 


Kitara 2:
e|---------------------------------------|
B|---------------------------------------|
G|-111111119-9-9-9-121212121111111111----|
D|---------------------------------------|
A|-9-9-9-9-7-7-7-7-101010109-9-9-9-9-----|
E|---------------------------------------|
                                     M

e|-----------------------------------------|
B|-----------------------------------------|
G|-11111111119-9-9-9-121212121111111111----|  --2x
D|-----------------------------------------|
A|-9-9-9-9-9-7-7-7-7-101010109-9-9-9-9-----|
E|-----------------------------------------|
                                       M

e|-----------------------------|
B|-----------------------------|
G|-111111119-9-9-9-12121212----|
D|-----------------------------|
A|-9-9-9-9-7-7-7-7-10101010----|
E|-----------------------------|
                           M


REFREN 1:
Še vedno ne verjamem...

Kitara 1:
e|--------------------------------------------|
B|--------------------------------------------|
G|--------------------------------------------|  --2x
D|-4--------5--------7--------2-----2-2--7-7--|
A|-2--------5--------5--------2-----2-2--5-5--|
E|-2--------3--------5--------0-----0-0--5-5--|
    ~~~~~~~~ ~~~~~~~~ ~~~~~~~~ ~~~~~

Kitara 2:
e|-------------------12-----------------------|
B|-12-------------------------7---------------|
G|----------5--------------5------------------|  --2x
D|--------------------------------------------|
A|--------------------------------------------|
E|--------------------------------------------|
                          


VERZ 2:

Kitara 1:
e|-------------------------------------------------------------|
B|-------------------------------------------------------------|
G|-------------------------------------------------------------|
D|-4-----------------------------------------------------------|
A|-2-----------------------------------------------------------|
E|-2-----------------------------------------------------------|
    ~~~~~~~~~~~~~~~~~~~~~~~~~~~~~~~~~~~~~~~~~~~~~~~~~~~~~~~~~~~

Kitara 2:
e|-----------------12----------------------------12------------|
B|-12----7------------------7----12----7------------------7----|
G|------------5----------5------------------5----------5-------|
D|-------------------------------------------------------------|
A|-------------------------------------------------------------|
E|-------------------------------------------------------------|
                                                


Sam, vsak dan...

Obe kitari:
e|-----------------------------|
B|-----------------------------|
G|-----------------------------|  --8x
D|-----------------------------|
A|-2-2-2-2-2----2-2-2-2-2------|
E|-2-2-2-2-2----2-2-2-2-2------|


Kitara 1:
e|-------------------------------------------------------------|
B|-------------------------------------------------------------|
G|-------------------------------------------------------------|
D|-4---------------------------4-4-----------------------------|
A|-2---------------------------2-2-----------------------------|
E|-2---------------------------2-2-----------------------------|
    ~~~~~~~~~~~~~~~~~~~~~~~~~~~   ~~~~~~~~~~~~~~~~~~~~~~~~~~~~~

Kitara 2:
e|-----------------12----------------------------12------------|
B|-12----7------------------7----12----7------------------7----|
G|------------5----------5------------------5----------5-------|
D|-------------------------------------------------------------|
A|-------------------------------------------------------------|
E|-------------------------------------------------------------|
                                                


Mi je dan...

Obe kitari:
e|-----------------------------|
B|-----------------------------|
G|-----------------------------|  --4x
D|-----------------------------|
A|-2-2-2-2-2----2-2-2-2-2------|
E|-2-2-2-2-2----2-2-2-2-2------|


Sam nemir...

Kitara 1:
                          |--------2x---------|
e|-----------------------------------------------------------------|
B|-----------------------------------------------------------------|
G|-----------------------------------------------------------------|
D|-----------------------------------------------------------------|
A|-2----2----2----2---2-2-----2----2----2---2-2-----2-----2-2-2----|
E|-2----2----2----2---2-2-----2----2----2---2-2-----2-----2-2-2----|
                                                    M


Kitara 2:
e|---------------------------------------|
B|---------------------------------------|
G|-111111119-9-9-9-121212121111111111----|
D|---------------------------------------|
A|-9-9-9-9-7-7-7-7-101010109-9-9-9-9-----|
E|---------------------------------------|
                                     M

e|-----------------------------------------|
B|-----------------------------------------|
G|-11111111119-9-9-9-121212121111111111----|  --2x
D|-----------------------------------------|
A|-9-9-9-9-9-7-7-7-7-101010109-9-9-9-9-----|
E|-----------------------------------------|
                                       M

e|-----------------------------|
B|-----------------------------|
G|-111111119-9-9-9-12121212----|
D|-----------------------------|
A|-9-9-9-9-7-7-7-7-10101010----|
E|-----------------------------|
                           M



REFREN 2:
Še vedno ne verjamem...

Kitara 1:
e|--------------------------------------------|
B|--------------------------------------------|
G|--------------------------------------------|  --2x
D|-4--------5--------7--------2-----2-2--7-7--|
A|-2--------5--------5--------2-----2-2--5-5--|
E|-2--------3--------5--------0-----0-0--5-5--|
    ~~~~~~~~ ~~~~~~~~ ~~~~~~~~ ~~~~~

Kitara 2:
e|-------------------12-----------------------|
B|-12-------------------------7---------------|
G|----------5--------------5------------------|  --2x
D|--------------------------------------------|
A|--------------------------------------------|
E|--------------------------------------------|
                          


BRIDGE:

Kitara 1:
e|------------------------|
B|------------------------|
G|------------------------|
D|-4----------------------|
A|-2----------------------|
E|-2----------------------|
    ~~~~~~~~~~~~~~~~~~~~~~

Kitara 2:
e|------------------------|
B|----0--0--0--0-----0----|
G|----4--4--4--4-----4^--|  --7x
D|------------------------|
A|------------------------|
E|------------------------|


Vse!!!....

Obe kitari:
e|--------------------|
B|--------------------|
G|--------------------|  --4x
D|--------------------|
A|-2--2--2-2-3-2-2-3--|
E|-2--2--2-2-3-2-2-3--|


Kitara 1:

e|-------------------------------------------------------|
B|-------------------------------------------------------|
G|-------------------------------------------------------|
D|-------------------------------------------------------|
A|-3-2-3--2---2-3-2-3--2---3-2-3--2---2-3-2---2-3-2-3-5--|
E|-3-2-3--2---2-3-2-3--2---3-2-3--2---2-3-2---2-3-2-3-5--|

e|-------------------------------------------|
B|-------------------------------------------|
G|-------------------------------------------|  --2x
D|-------------------------------------------|
A|-3--2--3-2-3--2---3--2--2-3-2---2-3-2-3-5--|
E|-3--2--3-2-3--2---3--2--2-3-2---2-3-2-3-5--|

e|------------------------|
B|------------------------|
G|------------------------|
D|------------------------|
A|-3--2--3-2-3--2---3--2--|
E|-3--2--3-2-3--2---3--2--|
                         M

Kitara 2:
e|------------------------|
B|----0--0--0--0-----0----|
G|----4--4--4--4-----4^--|  --8x
D|------------------------|
A|------------------------|
E|------------------------|


REFREN 3:
Še vedno ne verjamem...

Kitara 1:
e|--------------------------------------------|
B|--------------------------------------------|
G|--------------------------------------------|  --3x
D|-4--------5--------7--------2-----2-2--7-7--|
A|-2--------5--------5--------2-----2-2--5-5--|
E|-2--------3--------5--------0-----0-0--5-5--|
    ~~~~~~~~ ~~~~~~~~ ~~~~~~~~ ~~~~~

e|---------------------------------------------------|
B|---------------------------------------------------|
G|---------------------------------------------------|
D|-4--------5--------7--------2------7---4--4--4--4--|
A|-2--------5--------5--------2------5---2--2--2--2--|
E|-2--------3--------5--------0------5---2--2--2--2--|
    ~~~~~~~~ ~~~~~~~~ ~~~~~~~~ ~~~~~~      M  M  M  M

Kitara 2:
e|-------------------12-----------------------|
B|-12-------------------------7---------------|
G|----------5--------------5------------------|  --4x
D|--------------------------------------------|
A|--------------------------------------------|
E|--------------------------------------------|
                          


D-Fact - Ne verjamem - indeksirano na Trzalica.com.
Uporabniki, ki so igrali D-Fact - Ne verjamem, so igrali tudi sledeče pesmi od D-Fact:
Vse ti enkrat vrne se nazaj, Love song, Mavrične melodije, album ČAS, Poglej mamici v oči,
Daj dinar

Namig:

Če se vam niti ne sanja, kako prijeti akord "Absus4" in podobne eksote, se z miško zapeljite nad akord in prikazal se vam bo diagram akorda.

Pokažite svoj talent!

Tu lahko objavite vaš video ali audio posnetek! Hočem vedeti več ...
Kje lahko najdemo vaš nastop? Hočem vedeti več ...
Vaš komentar:
Prosimo, prijavite se in objavite vaš nastop.
cookieassistant.com