Izvajalci:   A B C Č D E F G H I J K L M N O P Q R S Š T U V W X Y Z Ž
Trenutna ocena: 0
Oceni akorde:
1  2  3  4  5
Transponiraj pesem:
================================================================================================
www.trzalica.com    www.trzalica.com    www.trzalica.com    www.trzalica.com    www.trzalica.com
================================================================================================
	 _______________________________________
	|					|
	| IZVAJALEC: ................... D-fact |
	| PESEM: .................... Love song |
	| ALBUM: ............... Fashion victim |
	|_______________________________________|
	|					|
	|   Tabulatura in besedilo z akordi	|
	|   Transkripcija: Aleš Godec (AliAs)	|
	|   email: alias.ag@email.si		|
	|   Domača stran: www.trzalica.com	|
	|_______________________________________|


D-facti imajo dva kitarista. Eden ima Sedemstrunsko (B E A D G B E), drugi pa ima
šestrunsko kitaro (B E A D G B  ali  B F# B E A C#). To tabulaturo sem napisal za
standardno uglasitev!!!

LEGENDA:
	M = MUTE - zaduši strune
	/ = slide up

Prijemi akordov:
   G#m   F#   C#m   B    E    E2
e|-4-----2----4----------0---------|
B|-4-----2----5-----4----0----9----|
G|-4-----3----6-----4----1----9----|
D|-6-----4----6-----4----2----9----|
A|-6-----4----4-----2----2----7----|
E|-4-----2----4----------0----7----|




VERZ 1:  (z efektom Tremolo)
e|-------------------------------------------|
B|-------------------------------------------|
G|---------------9--8--------------6---------|
D|-6----9--8--------------9--8--------4------|
A|-------------------------------------------|
E|-------------------------------------------|

Ostale so le misli...
e|--------------------------------------|
B|--------------------------------------|
G|----------9--8--------------6---------|  --2x
D|-9--8--------------9--8--------4------|
A|--------------------------------------|
E|--------------------------------------|

Spomnim se besed, ki zate so bile...  (tu začne druga kitara z akordi - glej spodaj)
e|--------------------------------------|
B|--------------------------------------|
G|----------9--8------------------------|  --2x
D|-9--8--------------9--8-----9--11-----|
A|--------------------------------------|
E|--------------------------------------|


G#m           F#                C#m
Spomnim se besed, ki zate so bile,
                B
vsega kar je narobe, kar bom zdaj končal.
G#m           F#                   C#m
To je moj trenutek za moj korak nazaj,
             B
zdaj sem na tem da za vedno vrnem se.


REFREN 1:
E             B           C#m
In od takrat vem, kaj po-meni biti sam,
E             B         C#m
in od takrat vem, da bilo ni zaman.


VERZ 2:  (z efektom Tremolo)
e|-------------------------------------------|
B|-------------------------------------------|
G|---------------9--8--------------6---------|
D|-6----9--8--------------9--8--------4------|
A|-------------------------------------------|
E|-------------------------------------------|

Nikoli ni dovolj...
e|--------------------------------------|
B|--------------------------------------|
G|----------9--8--------------6---------|
D|-9--8--------------9--8--------4------|
A|--------------------------------------|
E|--------------------------------------|

In nisem si na jasnem, kaj si zdaj želim...  (tu začne druga kitara z akordi - glej spodaj)
e|--------------------------------------|
B|--------------------------------------|
G|----------9--8------------------------|  --2x
D|-9--8--------------9--8-----9--11-----|
A|--------------------------------------|
E|--------------------------------------|


G#m             F#                   C#m
In nisem si na jasnem, kaj si zdaj želim
                B                            G#m
Sovražim le trenutek, ki je vse spremenil v dim.
            F#                C#m
Raje kot pozabil, uničil bi vse,
             B
nikoli ne zaupam več še samem' sebi ne.


REFREN 2:
E             B           C#m
In od takrat vem, kaj po-meni biti sam,
E             B         C#m
in od takrat vem, da bilo ni zaman.
E             B           C#m
In od takrat vem, da razkril sem ti vse,
E             B          C#m
in od takrat vem, da do-volj je sam dotik.


BRIDGE:
Kitara 1:  (z efektom Delay)
e|--------------|
B|--------------|
G|-9-8----6-----|
D|-----------9--|
A|--------------|
E|--------------|
       M    M  M       

e|-------------------|
B|-------------------|
G|----6/9-8----6-----|  --14x
D|-9--------------9--|
A|-------------------|
E|-------------------|
       M    M  M    M

e|-------------|
B|-------------|
G|----6--------|
D|-9-----------|
A|-------------|
E|-------------|


Kitara 2:
e|----------------------|
B|-9--------------------|
G|-----8----6-------8---|  --3x
D|----------------------|
A|----------------------|
E|----------------------|

e|------------------|
B|-9----------------|
G|-----8----6-------|
D|------------------|
A|------------------|
E|------------------|


REFREN 2:
E             B           C#m
In od takrat vem, kaj po-meni biti sam,
E             B         C#m
in od takrat vem, da bilo ni zaman.
E             B           C#m
In od takrat vem, da razkril sem ti vse,
E             B          C#m                E2   C#m
in od takrat vem, da do-volj je sam dotik.


D-Fact - Love song - indeksirano na Trzalica.com.
Uporabniki, ki so igrali D-Fact - Love song, so igrali tudi sledeče pesmi od D-Fact:
Vse ti enkrat vrne se nazaj, Mavrične melodije, album ČAS, Poglej mamici v oči,
Daj dinar, Čas ameriške dekadence

Namig:

Če je pesem zapisana previsoko ali prenizko na lestvici, da bi lahko zraven nje udobno peli, vam priporočamo, da jo transponirate. Preprosto kliknite željeno opcijo na desni strani besedila in vsi akordi se bodo transponirali v nov ključ.

Pokažite svoj talent!

Tu lahko objavite vaš video ali audio posnetek! Hočem vedeti več ...
Kje lahko najdemo vaš nastop? Hočem vedeti več ...
Vaš komentar:
Prosimo, prijavite se in objavite vaš nastop.
cookieassistant.com