Izvajalci:   A B C Č D E F G H I J K L M N O P Q R S Š T U V W X Y Z Ž
Trenutna ocena: 0
Oceni akorde:
1  2  3  4  5
Transponiraj pesem:
================================================================================================
www.trzalica.com    www.trzalica.com    www.trzalica.com    www.trzalica.com    www.trzalica.com
================================================================================================
	#======================== !!! N E   P R E Z R I !!! ===========================#
	#     Transkripcija je delo njenega avtorja in predstavlja njegovo lastno      #
	# interpretacijo skladbe. Njen namen ni kršenje avtorskih pravic, temveč pomoč #
	# drugim glasbenikom pri učenju in izpopolnjevanju kitarske tehnike ter znanja.#
	# Uporaba gradiva na portalu Trzalica.com je dovoljena le za osebno uporabo in #
	#  le ob pogoju, da si lastite originalen izdelek danega glasbenega izvajalca. #
	#       Portal Trzalica.COM ne odgovorja za nespoštovanje teh pravil.          #
	#==============================================================================#
	#                                                                              #
	#                    w w w . t r z a l i c a . c o m                           #
	#               K j e r   i m a m o   r a d i   g l a s b o                    #
	#                                                                              #
	#==============================================================================#
	 _______________________________________________________
	|							|
	| IZVAJALEC: ................................ Siddharta |
	| PESEM: .................................... Črnobelo 	|
	| ALBUM: .................................... ID 	|
	| LETO IZIDA: ............................... 1999 	|
	|_______________________________________________________|
	|							|
	|  Vrsta transkripcije: Tabulatura in besedilo z akordi	|
	|  Avtor transkripcije: Aleš Godec (AliAs)		|
	|  		 email: alias.ag@email.si		|
	|  Domača stran transkripcije: www.trzalica.com		|
	|  Datum nastanka transkripcije: 19.10.2006        	|
	|_______________________________________________________|


================================================================================================

LEGENDA ZNAKOV:
	M = MUTE
	X = Muffled
	~ = let ring
	^ = Bend up za 1/2 tona

================================================================================================

INTRO:

   Am          Em     G
e|-----------------------------|
B|-----------------------------|
G|-----------------------------|  -- 4x
D|-7--7--7-7-7-2--2-2-5--5-5-5-|
A|-7--7--7-7-7-2--2-2-5--5-5-5-|
E|-5--5--5-5-5-0--0-0-3--3-3-3-|

   Am
e|-5------5----------|
B|-5---------5---5---|
G|-5-----------5-----|  nato sledi pick slide po zgornjih treh strunah!
D|-7-----------------|  Bas kitara pa medtem igra: Am Em G (4x)
A|-7-----------------|
E|-5-----------------|


VERZ 1:

      Am          Em         G  Am  Em  G
	Le temna senca mimo vozi.
      Am            Em            G     Am  Em  G
	Le skrit obraz zvoni, ko mene ni.

e|----------------------|
B|-10--------10---------|  Z volume pedalom
G|----------------------|
D|----------------------|
A|----------------------|
E|----------------------|
     ~~~~~~~~  ~~~~~~~~

      Dm          F            C  Dm  F  G
	Noben ne ve, kam on zahaja.
      Am          Em             G  Am  Em  G
	Noben ne ve, s čim jo zavaja.

   Dm          F      C        Dm          F      G
e|-1--1--1-1-1-1--1-1-0--0-0-0-1--1--1-1-1-1--1-1-3--3-3-3-|
B|-3--3--3-3-3-1--1-1-1--1-1-1-3--3--3-3-3-1--1-1-0--0-0-0-|
G|-2--2--2-2-2-2--2-2-0--0-0-0-2--2--2-2-2-2--2-2-0--0-0-0-|
D|-0--0--0-0-0-3--3-3-2--2-2-2-0--0--0-0-0-3--3-3-0--0-0-0-|
A|-------------3--3-3-3--3-3-3-------------3--3-3-2--2-2-2-|
E|-------------1--1-1----------------------1--1-1-3--3-3-3-|

   Am          Em     G
e|-0--0--0-0-0-0--0-0-3--3-3-3-|
B|-1--1--1-1-1-0--0-0-0--0-0-0-|
G|-2--2--2-2-2-0--0-0-0--0-0-0-|  -- 2x
D|-2--2--2-2-2-2--2-2-0--0-0-0-|  v drugi ponovitvi na zadnji akord G
A|-0--0--0-0-0-2--2-2-2--2-2-2-|  že vklopite distorzijo.
E|-------------0--0-0-3--3-3-3-|


REFREN 1:

   Am          Em     G
e|-----------------------------|
B|-----------------------------|
G|-----------------------------|  -- 2x
D|-7--7--7-7-7-2--2-2-5--5-5-5-|
A|-7--7--7-7-7-2--2-2-5--5-5-5-|
E|-5--5--5-5-5-0--0-0-3--3-3-3-|

      F        G      Em              G  F  G  Em
	A jaz si govorim: "ne vidim smrti,"
      F         G      Em           G      F  G  Em
	a kaj, ko mi obenem z roke lije kri.
      F           G        Em        G  F  G  Em
	Saj vem, da se prasici jebe zame,
      F            G           Em                G     F  G  Em
	a ne vem, kaj naj naredim, da bom videl belo le?

   F     G     Em       G     F     G     Em
e|--------------------------------------------------------|
B|--------------------------------------------------------|
G|--------------------------------------------------------|  -- 3x
D|-3--3--5-5-5-2--2-2-2-5--5--3--3--5-5-5-2--2-2-2--2-2-2-|
A|-3--3--5-5-5-2--2-2-2-5--5--3--3--5-5-5-2--2-2-2--2-2-2-|
E|-1--1--3-3-3-0--0-0-0-3--3--1--1--3-3-3-0--0-0-0--0-0-0-|

   F     G     Em       G     F     G     Em
e|--------------------------------------------------------0----------------------------|
B|--------------------------------------------------------0----------------------------|
G|--------------------------------------------------------0----------------------------|
D|-3--3--5-5-5-2--2-2-2-5--5--3--3--5-5-5-2--2-2-2--2-2-2-2--2-2-2-2-2-2--2-2-2--2-2-2-|
A|-3--3--5-5-5-2--2-2-2-5--5--3--3--5-5-5-2--2-2-2--2-2-2-2--2-2-2-2-2-2--2-2-2--2-2-2-|
E|-1--1--3-3-3-0--0-0-0-3--3--1--1--3-3-3-0--0-0-0--0-0-0-0--0-0-0-0-0-0--0-0-0--0-0-0-|

Druga kitara med zgornjim riffom (Primož):
   F     G        Em       G        F     G        Em
e|------------------------------------------------------------------|
B|------------------------------------------------------------------|
G|-10-10-12-12-12-9--9-9-9-12-12-12-10-10-12-12-12-9--9-10-12-12-14-|  -- 3x
D|------------------------------------------------------------------|
A|-8--8--10-10-10-7--7-7-7-10-10-10-8--8--10-10-10-7--7-8--10-10-12-|
E|------------------------------------------------------------------|

   F     G        Em       G        F     G        Em
e|----------------------------------------------------------------------------|
B|--------------------------------------------------------------8-------------|
G|-10-10-12-12-12-9--9-9-9-12-12-12-10-10-12-12-12-9------------9-------------|
D|--------------------------------------------------------------9-------------|
A|-8--8--10-10-10-7--7-7-7-10-10-10-8--8--10-10-10-7------------7-------------|
E|--------------------------------------------------------------0-------------|

Nato obe kitari:
   Am          Em     G
e|-----------------------------|
B|-----------------------------|
G|-----------------------------|  -- 2x
D|-7--7--7-7-7-2--2-2-5--5-5-5-|
A|-7--7--7-7-7-2--2-2-5--5-5-5-|
E|-5--5--5-5-5-0--0-0-3--3-3-3-|

   Am
e|-5-------5-------|
B|-5---------5---5-|
G|-5-----------5---|  nato sledi pick slide po zgornjih treh strunah!
D|-7--7------------|  Bas kitara pa medtem igra: Am Em G (2x)
A|-7--7------------|
E|-5--5------------|


VERZ 2:

      Am          Em           G  Am  Em  G
	Neznan obraz visi na steni.
      Am          Em           G  Am  Em  G
	Plavi lasje, ki niso njeni.

e|----------------------|
B|-10--------10---------|  Z volume pedalom
G|----------------------|
D|----------------------|
A|----------------------|
E|----------------------|
     ~~~~~~~~  ~~~~~~~~

      Dm          F           C  Dm  F  G
	Naj eden hitro me zagrabi.
      Am          Em         G  Am  Em  G
	Naj eden črno ven izvabi.

   Dm          F      C        Dm          F      G
e|-1--1--1-1-1-1--1-1-0--0-0-0-1--1--1-1-1-1--1-1-3--3-3-3-|
B|-3--3--3-3-3-1--1-1-1--1-1-1-3--3--3-3-3-1--1-1-0--0-0-0-|
G|-2--2--2-2-2-2--2-2-0--0-0-0-2--2--2-2-2-2--2-2-0--0-0-0-|
D|-0--0--0-0-0-3--3-3-2--2-2-2-0--0--0-0-0-3--3-3-0--0-0-0-|
A|-------------3--3-3-3--3-3-3-------------3--3-3-2--2-2-2-|
E|-------------1--1-1----------------------1--1-1-3--3-3-3-|

   Am          Em     G
e|-0--0--0-0-0-0--0-0-3--3-3-3-|
B|-1--1--1-1-1-0--0-0-0--0-0-0-|
G|-2--2--2-2-2-0--0-0-0--0-0-0-|  -- 2x
D|-2--2--2-2-2-2--2-2-0--0-0-0-|  v drugi ponovitvi na zadnji akord G
A|-0--0--0-0-0-2--2-2-2--2-2-2-|  že vklopite distorzijo.
E|-------------0--0-0-3--3-3-3-|


REFREN 2:

   Am          Em     G
e|-----------------------------|
B|-----------------------------|
G|-----------------------------|  -- 2x
D|-7--7--7-7-7-2--2-2-5--5-5-5-|
A|-7--7--7-7-7-2--2-2-5--5-5-5-|
E|-5--5--5-5-5-0--0-0-3--3-3-3-|

      F        G      Em              G  F  G  Em
	A jaz si govorim: "ne vidim smrti,"
      F         G      Em           G      F  G  Em
	a kaj, ko mi obenem z roke lije kri.
      F           G        Em        G  F  G  Em
	Saj vem, da se prasici jebe zame,
      F            G           Em                G     F  G  Em
	a ne vem, kaj naj naredim, da bom videl belo le?

   F     G     Em       G     F     G     Em
e|--------------------------------------------------------|
B|--------------------------------------------------------|
G|--------------------------------------------------------|  -- 3x
D|-3--3--5-5-5-2--2-2-2-5--5--3--3--5-5-5-2--2-2-2--2-2-2-|
A|-3--3--5-5-5-2--2-2-2-5--5--3--3--5-5-5-2--2-2-2--2-2-2-|
E|-1--1--3-3-3-0--0-0-0-3--3--1--1--3-3-3-0--0-0-0--0-0-0-|

   F     G     Em       G     F     G     Em
e|------------------------------------------|
B|------------------------------------------|
G|------------------------------------------|  Tomi od tu naprej brenka E5 akord
D|-3--3--5-5-5-2--2-2-2-5--5--3--3--5-5-5-2-|
A|-3--3--5-5-5-2--2-2-2-5--5--3--3--5-5-5-2-|
E|-1--1--3-3-3-0--0-0-0-3--3--1--1--3-3-3-0-|

Druga kitara med zgornjim riffom (Primož):
   F     G        Em       G        F     G        Em
e|------------------------------------------------------------------|
B|------------------------------------------------------------------|
G|-10-10-12-12-12-9--9-9-9-12-12-12-10-10-12-12-12-9--9-10-12-12-14-|  -- 3x
D|------------------------------------------------------------------|
A|-8--8--10-10-10-7--7-7-7-10-10-10-8--8--10-10-10-7--7-8--10-10-12-|
E|------------------------------------------------------------------|

   F     G        Em       G        F     G        Em
e|----------------------------------------------------|
B|----------------------------------------------------|
G|-10-10-12-12-12-9--9-9-9-12-12-12-10-10-12-12-12-9--|  Od tu naprej Primož solira,
D|----------------------------------------------------|  Tomi pa poljubna brenka
A|-8--8--10-10-10-7--7-7-7-10-10-10-8--8--10-10-10-7--|  E5 akord!
E|----------------------------------------------------|


SOLO:
z wah-wahom; Tomi medtem brenka E5 akord.
e|----------------------------------------------------------------------------------|
B|----------------------------------------------------------------------------------|
G|-9-9-9-9-9-9-9-9-9-9-9-9-14-14-14-14-17-17-17-17-16-16-16-16-14-14-14-14-19-19-19-|
D|----------------------------------------------------------------------------------|
A|-7-7-7-7-7-7-7-7-7-7-7-7-12-12-12-12-15-15-15-15-14-14-14-14-12-12-12-12-17-17-17-|
E|----------------------------------------------------------------------------------|

e|--------------------------------X-X-------X-X-------X-X-------X-X-------X-X-------X-X-----------------------------|
B|--------------------------------X-X-------X-X-------X-X-------X-X-------X-X-------X-X-20-20---21-21-21-21-21^-----|
G|-16--16-16-16-17-17-17-17-19-19-X-X-19-19-X-X-21-21-X-X-21-21-X-X-22-22-X-X-22-22-X-X-----------------------------|
D|--------------------------------X-X-------X-X-------X-X-------X-X-------X-X-------X-X-----------------------------|
A|-14--14-14-14-15-15-15-15-17-17-X-X-17-17-X-X-19-19-X-X-19-19-X-X-20-20-X-X-20-20-X-X-----------------------------|
E|--------------------------------X-X-------X-X-------X-X-------X-X-------X-X-------X-X-----------------------------|
                                                                                              M
Na zadnji bendani ton Tomi začne z riffom:
   Am          Em     G
e|-----------------------------|
B|-----------------------------|
G|-----------------------------|  -- 4x
D|-7--7--7-7-7-2--2-2-5--5-5-5-|
A|-7--7--7-7-7-2--2-2-5--5-5-5-|
E|-5--5--5-5-5-0--0-0-3--3-3-3-|

Primož pa medtem nadaljuje s slom - zdaj brez wah-waha:
e|----------------------------------------------------------------|
B|----------------------------------------------------------------|
G|----------------------------------------------------------------|
D|-------------------------------------------------17-17----------|
A|-------15-----------17-15--------17-15-17/19-19---------14--12--|
E|-15-17----17----------------------------------------------------|

Na zadnji ton sola se začne Bridge...


BRIDGE:

      A5        B5   C5          D5
	Vzamem belo ..... na steno,
	           F5          G5
	pristavim les, okvir, čisto ob njej.
      A5         B5       C5       D5
	Krivijo ..... se roke na njem,
	           F5   G5
	v črnino zre, zre...
      A5                    B5     C5
	..... pribijem mu dlan v tla,
	        D5                F5        G5
	kreten sam si kriv, zdaj vidiš kdo jebat zna,
      A5             B5  C5      D5            F5   G5    Am...
	naj svet odpre oči mi takoj, ko bodo dnevi zame svetli...

	Am  Em  G  (8x)
	Svetli...

   A5          B5     C5       D5          F5     G5
e|---------------------------------------------------------|
B|---------------------------------------------------------|
G|-------------4--4-4-5--5-5-5-7--7--7-7-7-----------------|  -- 4x
D|-7--7--7-7-7-4--4-4-5--5-5-5-7--7--7-7-7-3--3-3-5--5-5-5-|
A|-7--7--7-7-7-2--2-2-3--3-3-3-5--5--5-5-5-3--3-3-5--5-5-5-|
E|-5--5--5-5-5-----------------------------1--1-1-3--3-3-3-|

   Am          Em     G
e|-----------------------------|
B|-----------------------------|
G|-----------------------------|  -- 8x
D|-7--7--7-7-7-2--2-2-5--5-5-5-|
A|-7--7--7-7-7-2--2-2-5--5-5-5-|
E|-5--5--5-5-5-0--0-0-3--3-3-3-|


REFREN 3:

      F        G      Em              G  F  G  Em
	A jaz si govorim: "ne vidim smrti,"
      F         G      Em           G      F  G  Em
	a kaj, ko mi obenem z roke lije kri.
      F           G        Em        G  F  G  Em
	Saj vem, da se prasici jebe zame,
      F            G           Em                G     F  G  Em  Am
	a ne vem, kaj naj naredim, da bom videl belo le?

   F     G     Em       G     F     G     Em
e|--------------------------------------------------------|
B|--------------------------------------------------------|
G|--------------------------------------------------------|  -- 3x
D|-3--3--5-5-5-2--2-2-2-5--5--3--3--5-5-5-2--2-2-2--2-2-2-|
A|-3--3--5-5-5-2--2-2-2-5--5--3--3--5-5-5-2--2-2-2--2-2-2-|
E|-1--1--3-3-3-0--0-0-0-3--3--1--1--3-3-3-0--0-0-0--0-0-0-|

   F     G     Em       G     F     G     Em                                           Am
e|----------------------------------------------------------------------------------------------|
B|----------------------------------------------------------------------------------------------|
G|----------------------------------------------------------------------------------------------|
D|-3--3--5-5-5-2--2-2-2-5--5--3--3--5-5-5-2--2-2-2--2-2-2-2--2-2-2-2-2-2--2-2-2--2-2-2-7--------|
A|-3--3--5-5-5-2--2-2-2-5--5--3--3--5-5-5-2--2-2-2--2-2-2-2--2-2-2-2-2-2--2-2-2--2-2-2-7--------|
E|-1--1--3-3-3-0--0-0-0-3--3--1--1--3-3-3-0--0-0-0--0-0-0-0--0-0-0-0-0-0--0-0-0--0-0-0-5--------|

Druga kitara med zgornjim riffom (Primož):
   F     G        Em       G        F     G        Em
e|------------------------------------------------------------------|
B|------------------------------------------------------------------|
G|-10-10-12-12-12-9--9-9-9-12-12-12-10-10-12-12-12-9--9-10-12-12-14-|  -- 3x
D|------------------------------------------------------------------|
A|-8--8--10-10-10-7--7-7-7-10-10-10-8--8--10-10-10-7--7-8--10-10-12-|
E|------------------------------------------------------------------|

   F     G        Em       G        F     G        Em                                           Am
e|--------------------------------------------------------------------------------------------------------|
B|--------------------------------------------------------------------------------------------------------|
G|-10-10-12-12-12-9--9-9-9-12-12-12-10-10-12-12-12-9--9-9-9--9-9-9-9--9-9-9-9-9-9--9-9-9--9-9-9-14--------|
D|--------------------------------------------------------------------------------------------------------|
A|-8--8--10-10-10-7--7-7-7-10-10-10-8--8--10-10-10-7--7-7-7--7-7-7-7--7-7-7-7-7-7--7-7-7--7-7-7-12--------|
E|--------------------------------------------------------------------------------------------------------|


	#==============================================================================#
	#                                                                              #
	#                    w w w . t r z a l i c a . c o m                           #
	#               K j e r   i m a m o   r a d i   g l a s b o                    #
	#                                                                              #
	#==============================================================================#
================================================================================================
www.trzalica.com    www.trzalica.com    www.trzalica.com    www.trzalica.com    www.trzalica.com
================================================================================================


Siddharta - Črnobelo v1 - indeksirano na Trzalica.com.
Uporabniki, ki so igrali Siddharta - Črnobelo v1, so igrali tudi sledeče pesmi od Siddharta:
Orion Lady v2, Homo Carnula v1, THOR v1, Farmer, 01 (nulaena) v2, Klinik v2
Ogromno število pesmi z akordi in tablaturami izvajalca Siddharta najdete tudi na spletni strani YourChords.com pod Siddharta Chords and Tabs.

Namig:

Iskalnik akordov in tablatur www.Glasbenik.net trenutno indeksira približno 7'800 pesmi izpod prstov približno 500 različnih izvajalcev. In nove pesmi se pridno nabirajo v našem arhivu, tako da vam jih zlepa ne bo zmanjkalo.

Pokažite svoj talent!

Tu lahko objavite vaš video ali audio posnetek! Hočem vedeti več ...
Kje lahko najdemo vaš nastop? Hočem vedeti več ...
Vaš komentar:
Prosimo, prijavite se in objavite vaš nastop.
cookieassistant.com