Izvajalci:   A B C Č D E F G H I J K L M N O P Q R S Š T U V W X Y Z Ž
Blink 182 - EASY TARGET

Intro
e ------------------------------------------------
B ------------------------------------------------
G ------------------------------------------------  X4
D -4-----7-7-7--2--2-2-2--------------------------
A -4-X8--7-7-7--2--2-2-2--------------------------
E -2-----5-5-5--0--0-0-0--------------------------

Verse 1
e ------------------------------------------------
B ------------------------------------------------
G -6------4-4-4--6-6-6----------------------------
D ---X16---------------2~-------------------------  X4
A -4------2-2-2--4-4-4-0~-------------------------
E ------------------------------------------------

Chorus 1
e ------------------------------------------------
B ------------------------------------------------
G ------------------------------------------------
D -4----7----2---------end on--7~-----------------  X4
A -4-X8-7-X4-2-X4--------------7~-----------------
E -2----5----0-----------------5~-----------------
-----
Verse 2
(bass plays and then at 1:06 the guitar comes in with this)
e ------------------------------------------------
B ------------------------------------------------
G -6~--4-6----------------------------------------
D ---------2--------------------------------------
A -4~--2-4-0--------------------------------------
E ------------------------------------------------

Chorus 2
e ------------------------------------------------
B ------------------------------------------------
G ------------------------------------------------
D -4----7----2------------------------------------  X4
A -4-X8-7-X4-2-X4---------------------------------
E -2----5----0------------------------------------

Interlude                     X3 -|
e --------------------------------|---------------
B --------------------------------|---------------
G -7-7-7-7-7-7-7-7----------------|-7----6--------
D -7-7-7-7-7-7-7-7-7-7-7-7-2-2-2-2|-7-X8-6-X8-----  
A -5-5-5-5-5-5-5-5-7-7-7-7-2-2-2-2|-5----4--------
E -----------------5-5-5-5-0-0-0-0|---------------

Outro
e ------------------------------------------------
B ------------------------------------------------
G ------------------------------------------------
D -4/6/7/9\7--7/9/11-11/12\9----------------------
A ------------------------------------------------
E -2/4/5/7\5--5/7/9--9\10/7-----------------------
Play Outro until the song is done and gradually get slower each time through


Blink 182 - Easy target v1 - indeksirano na Trzalica.com.
Uporabniki, ki so igrali Blink 182 - Easy target v1, so igrali tudi sledeče pesmi od Blink 182:
All The Small Things, I Miss You v3, I Miss You tab, Track 15 tab, Fuck A Dog tab,
Violence
Ogromno število pesmi z akordi in tablaturami izvajalca Blink 182 najdete tudi na spletni strani YourChords.com pod Blink 182 Chords and Tabs.

Namig:

Preizkusite AutoScroller ... Tako se lahko povsem posvetite preigravanju kitare, medtem ko se bo besedilo z akordi avtomatsko pomikalo po ekranu. S pomočjo miške oziroma tipkovnice (tipke 0, 1, 2 in 3) lahko izbirate med različnimi hitrostmi premikanja besedila.

Pokažite svoj talent!

Tu lahko objavite vaš video ali audio posnetek! Hočem vedeti več ...
Kje lahko najdemo vaš nastop? Hočem vedeti več ...
Vaš komentar:
Prosimo, prijavite se in objavite vaš nastop.
cookieassistant.com