Izvajalci:   A B C Č D E F G H I J K L M N O P Q R S Š T U V W X Y Z Ž
Trenutna ocena: 0
Oceni akorde:
1  2  3  4  5
Transponiraj pesem:
===============================================
w.raiacm  w.raiacm  w.raiacm  w.raiacm  w.raiacm
================================================
#============!!NE PREZRI!!==============
#  Tasrpiaj eoneeaatrai rdtvj jgv ato   
#itrrtcj kab.Ne ae iksneatrkhpai,tme oo 
#dui lseio r cnui zooneaj iasethietrzaj.
#Uoaagaian otl raiaCMj oojn ez sbouoaoi 
# eo oou as att rgnlnidlkdng lseeaivjla 
#   Pra raiaCMn dooj ansotvnethpai.     
#=======================================
#                                       
#                                       
#       Kjer imamo radi glasbo          
#                                       
#=======================================
 ___________________
|		|
|IVJLC ........Sdhra|
|PSM ............M.Q|
|ABM .......... erla|
|___________________|
|		|
| Tasrpia lsGdc(lA)|
| eal la.geals	|
| Dmc ta:wwtzlc.o	
|___________________|

EED NKV
M=MT
=pl ue
X=mfld

================================================
w.raiacm  w.raiacm  w.raiacm  w.raiacm  w.raiacm
================================================

EZ1

nr:
|---------------|
|---------------|
|---------------| -8
|---------------|
|---------------|
|336633-3-36633-|
 

Zae eeamdea
Vmre ur trcpj
V ea a edlorbm

        x
|---------------|------------------------------|
|---------------|------------------------------|
|---------------|------------------------------|
|---------------|------------------------------|
|---------------|------------------------------|
|336633-3-36633-|556655-5-56655-225522-2-25522-|
   

Zua eorzo mh 
Zgaosrno ojfj
Ga lz uz ej em e

        x
|---------------|--------------------------------|
|---------------|--------------------------------|
|---------------|--------------------------------|
|---------------|--------------------------------|
|---------------|661-066-6-61-066-336633-3-36633-|
|336633-3-36633-|--------------------------------|
   

Dlcsrno ijhsrjv
Dlcsrno l itm
Zn eignlcsi at

|--------------------
|--------------------
|--------------------
|--------------------
|--------------------
|55665566556655665---
 


ERN

 G                  D         m
|--------------------------------------|
|--------------------------------------|
|--------------------------------------|
|5-----------5-5--558-----------5-5--55|
|5-5-5--5---55-5-5556-6-6--6---33-3-333|
|3-3-3--3---33-3-3336-6-6--6---33-3-333|
                           

 G                  D         m
|-----------------------------------------|
|-----------------------------------------|
|-----------------------------------------|
|5-----------5-5--558-----------5-5-------|
|5-5-5--5---55-5-5556-6-6--6---33-3-33--3-|
|3-3-3--3---33-3-3336-6-6--6---33-3-33--3-|
                           


EZ2

                 3
|-------------------------
|-------------------------
|-------------------------
|-------------------------
|-------------------------
|-------------------------
     

Zrb eeazlv
dlodlooaue
sopcs enpliza

        x
|---------------|------------------------------|
|---------------|------------------------------|
|---------------|------------------------------|
|---------------|------------------------------|
|---------------|669966-6-69966-336633-3-36633-|
|336633-3-36633-|------------------------------|
       M M     M       M M     M      M M     M

-'or ur r ,
Jzvj  tao buue'
-'e ta et aod a eb..

|--------------------
|--------------------
|--------------------
|--------------------
|--------------------
|55665566556655665---
                  M


ERN

 G                  D         m
|------------------------------------------|
|------------------------------------------|
|------------------------------------------|
|5-----------5-5--558-----------5-5--------|
|5-5-5--5---55-5-5556-6-6--6---33-3-353010-|
|3-3-3--3---33-3-3336-6-6--6---33-3-------1|
                         

 G                  D         m   D
|------------------------------------
|------------------------------------
|------------------------------------
|5-----------5-5--558-----------5-8--
|5-5-5--5---55-5-5556-6-6--6---55-6--
|3-3-3--3---33-3-3336-6-6--6---33-6--
                           


UR:

|-----------------------------------------
|-----------------------------------------
|--------------X-X-XX--------------X-X-XX-
|5-----7--3--5-X-X-XX3-----5-----3-X-X-XX-
|5-----5--1--3-X-X-XX3-----3--0--1-X-X-XX-
|3-----5--1--3-X-X-XX1-----3--0--1-X-X-XX-
    M                   M

|-----------------------------------------|
|-----------------------------------------|
|-----------------------------------------|
|3--5-----5--3----------------------------|
|1--3--0--3--1------------6633----6555555-|
|1--3--0--3--1----------------5522----555-|
                M             

|-----------------------------------------
|-----------------------------------------
|--------------X-X-XX--------------X-X-XX-
|5-----7--3--5-X-X-XX3-----5-----3-X-X-XX-
|5-----5--1--3-X-X-XX3-----3--0--1-X-X-XX-
|3-----5--1--3-X-X-XX1-----3--0--1-X-X-XX-
    M                   M

|----------------------------------------
|----------------------------------------
|----------------------------------------
|8--1--7--1--8------------7--------------
|6--8--5--8--6------------5--------------
|6--8--5--8--6------------5--------------
                M                       


================================================
w.raiacm  w.raiacm  w.raiacm  w.raiacm  w.raiacm
================================================


Siddharta - Mr. Q - indeksirano na Trzalica.com.
Uporabniki, ki so igrali Siddharta - Mr. Q, so igrali tudi sledeče pesmi od Siddharta:
Orion Lady v2, Homo Carnula v1, THOR v1, Farmer, 01 (nulaena) v2, Klinik v2
Ogromno število pesmi z akordi in tablaturami izvajalca Siddharta najdete tudi na spletni strani YourChords.com pod Siddharta Chords and Tabs.

Namig:

Preizkusite AutoScroller ... Tako se lahko povsem posvetite preigravanju kitare, medtem ko se bo besedilo z akordi avtomatsko pomikalo po ekranu. S pomočjo miške oziroma tipkovnice (tipke 0, 1, 2 in 3) lahko izbirate med različnimi hitrostmi premikanja besedila.

Pokažite svoj talent!

Tu lahko objavite vaš video ali audio posnetek! Hočem vedeti več ...
Kje lahko najdemo vaš nastop? Hočem vedeti več ...
Vaš komentar:
Prosimo, prijavite se in objavite vaš nastop.
cookieassistant.com