Izvajalci:   A B C Č D E F G H I J K L M N O P Q R S Š T U V W X Y Z Ž
Trenutna ocena: 0
Oceni akorde:
1  2  3  4  5
Transponiraj pesem:
Izvajalec: ........... Iron Maiden [Harris]
 Naslov: .............. Fear Of The Dark
 Album: ............... Fear Of The Dark
 ____________________________________________________________    
 
 Transkripcijo izdelal: .... Andraž Mehle [F(r)iend]
 E-mail: ................... a.satellite@gmail.com              
 
 Vrsta transkripcije: ...... Besedilo z akordi + tablatura 
 Domača stran: ............. www.trzalica.com




Uvod: (dve kitari, ena igra oktavo nižje)

     D5                               C5 
e|-----------------------------------------------------------------------------|
B|----------------------------------------------------5-5---------5------------|
G|---7------7-7-9-9-10-10-9-9-7-7-9-9--5------5-5-7-7-----7-7-5-5---5----------|  2x
D|------7-7-------------------------------5-5----------------------------------|
A|-----------------------------------------------------------------------------|
D|-----------------------------------------------------------------------------|

    A5                                G5
e|-----------------------------------------------------------------------------|
B|-----------------------------------------------------------------------------|
G|------------------------------------------------------4-4---------4----------|
D|--7-7-----7-7-9-9-10-10-9-9-7-7-9-9---5-5-----5-5-7-7-----7-7-5-5---5--------|
A|------7-7---------------------------------5-5--------------------------------|
D|-----------------------------------------------------------------------------|

    A5                                F5               G5
e|-----------------------------------------------------------------------------|
B|-----------------------------------------------------------------------------|
G|-----------------------------------------------------2-2---------2-----------|
D|--7-7-----7-7-9-9-10-10-9-9-7-7-9-9--3-3-----3-3-5-5-----5-5-3----3----------|
A|------7-7--------------------------------3-3---------------------------------|
D|-----------------------------------------------------------------------------|


Sledi (2X):  D5, B5, C5, B5, C5
	     D5, B5, C5

(v oklepajih so napisani akordi, ki jih lahko igrate namesto power akordov,
ki so uporabljeni sicer v originalu)

D5(Dm) B5(B)         C5(C)
I am a man who walks alone
             B5(B)   C5(C)  D5(Dm)
And when I'm walking a dark road
            B5(B)                 C5(C)    B5(B) C5(C)
At night or strolling through the park

D5       B5              C5
When the light begins to change
            B5     C5      D5
I sometimes feel a little strange
         B5                C5
A little anxious when it's dark.


C5          B5  C5           D5   C5
Fear of the dark,fear of the dark
       B5                 F5          G5     D5
I have constant fear that something's always near
D5          B5  C5           D5   C5
Fear of the dark,fear of the dark
         B5          F5        G5     D5
I have a phobia that someone's always there


Bridge: D5, B5, C5, D5 (2x)
e|----------------------------------------------------------------------------------------------
B|----------------------------------------------------------------------------------------------
G|----------------------------------------------------------------------------------------------
D|-----7-7-5-5-7-7-----7-7-5-5-7------7-7-5-5-7-7-----7-7-5-5-7------7-7-5-5-7-7-----7-7-5-5-7--
A|-5-5-------------5-5-----------5--5-------------5-5-----------5--5-------------5-5------------
D|----------------------------------------------------------------------------------------------

 ---------------------------------------|
 ---------------------------------------|
 ---------------------------------------| 2x
 ---------------------5-5---------------|
 -5-5-0-0-5-5-7-7-8-8-----8-8-7---------|
 ---------------------------------------|

D5                                 B5
Have you run your fingers down the wall
                                 C5
And have you felt your neck skin crawl
                              D5
When you're searching for the light ?
D5                                     B5
Sometimes when you're scared to take a look
                     C5
At the corner of the room
                                        D5
You've sensed that something's watching you.


Refren:
D5          B5  C5           D5   C5
Fear of the dark,fear of the dark
       B5                 F5          G5     D5
I have constant fear that something's always near
D5          B5  C5           D5   C5
Fear of the dark,fear of the dark
         B5          F5        G5     D5
I have a phobia that someone's always there


D5            B5            C5
Have you ever been alone at night
            D5        C5     D5
Thought you heard footsteps behind
D5          B5                 C5
And turned around and no-one's there ?
D5         B5              C5
And as you quicken up your pace
            F5      G5    D5
You find it hard to look again
D5             B5                   C5
Because you're sure there's someone there


Refren (palm mute vsako drugo [dva udarca])

Bridge: D5, B5, C5, D5 (2x)

SOLO:
D5,  B5,  G5,  B5,C5,D5 (2x)

D5,  B5,  G5,  C5,D5 (2x)

D5,  B5,C5,D5  (2x)

Fis5,  D5,E5,Fis5  (2x)

Pre-Verse:
D5,  B5,  G5,  A5,  D5

D5                B5
Fear of the dark, fear of the dark
G5               A5            D5 
Fear of the dark, fear of the dark
(2x)

Bridge: D5, B5, C5, D5 (2x)

D5              B5              C5
Watching horror films the night before
         F5       G5     D5
Debating witches and folklore
D5          B5               C5 
The unknown troubles on your mind
D5         B5              C5
Maybe your mind is playing tricks
               F5     G5   D5
You sense, and suddenly eyes fix
D5         B5           C5
On dancing shadows from behind.

Refren: (2x)
Fear of the dark, fear of the dark
I have a constant fear that something's always near
Fear of the dark, fear of the dark
I have a phobia that someone's always there.

(potem pa spet distortion na off;)
D5, B5, C5, B5, C5
D5, B5, C5

D5       B5             C5
When I'm walking a dark road
       F5      G5    D5
I am a man who walks alone


Iron Maiden - Fear Of The Dark v2 - indeksirano na Trzalica.com.
Uporabniki, ki so igrali Iron Maiden - Fear Of The Dark v2, so igrali tudi sledeče pesmi od Iron Maiden:
Prodigal son v2, Dance of death, Blood Brothers v3, Be quick or be death v2,
Brave new world v1
Ogromno število pesmi z akordi in tablaturami izvajalca Iron Maiden najdete tudi na spletni strani YourChords.com pod Iron Maiden Chords and Tabs.

Namig:

Preizkusite AutoScroller ... Tako se lahko povsem posvetite preigravanju kitare, medtem ko se bo besedilo z akordi avtomatsko pomikalo po ekranu. S pomočjo miške oziroma tipkovnice (tipke 0, 1, 2 in 3) lahko izbirate med različnimi hitrostmi premikanja besedila.

Pokažite svoj talent!

Tu lahko objavite vaš video ali audio posnetek! Hočem vedeti več ...
Kje lahko najdemo vaš nastop? Hočem vedeti več ...
Vaš komentar:
Prosimo, prijavite se in objavite vaš nastop.
cookieassistant.com