Izvajalci:   A B C Č D E F G H I J K L M N O P Q R S Š T U V W X Y Z Ž
============!!NE PREZRI!!==============
   rnkicj edl jng voj npesalaneoolsn   #
 nepeaioslde jnnmnn rej vosi rvc evcpmc#
 rgmgabnkmpiuej nippljvnuktrk enk e nna#
 prb rdv aprauTzlc.o edvleal aoen prb n#
 l bpgj,d ilsieoiiae zee aeagabng zaac.#
    otlTzlc.O eogvraz epsoaj e rvl     #
=======================================#
                                       #
          www.trzalica.com             #
                                       #
                                       #
=======================================#

 zaae:...........Sdhra
 kab:............Dsodlx
 rnkicj zea .....zeto
 oaasrntasrpie...wwtzlc.o

========================================

idat  ic eue(a oo

---------------------------------------
---------------------------------------
---------------------------------------
-------9-------------------------------
--791v--19--179----91-21----9--/197-77-
-9-------------9--2--------2-1-----9---
                                       

---------------------------------------
---------------------------------------
-------------8--/----------------------
-----9-91-1-1-1---/19---19-----------9-
---/1-1--------------1----91ph17----1--
9-------------------------------91-----
                                       

-------------------------------------
--29---------------------------------
----1--19----------------------------
1---------1--------------------------
-------------------------------------
-------------------------------------


Siddharta - Disco deluxe v1 - indeksirano na Trzalica.com.
Uporabniki, ki so igrali Siddharta - Disco deluxe v1, so igrali tudi sledeče pesmi od Siddharta:
Orion Lady v2, Homo Carnula v1, THOR v1, Farmer, 01 (nulaena) v2, Klinik v2
Ogromno število pesmi z akordi in tablaturami izvajalca Siddharta najdete tudi na spletni strani YourChords.com pod Siddharta Chords and Tabs.

Namig:

Iskalnik akordov in tablatur www.Glasbenik.net trenutno indeksira približno 7'800 pesmi izpod prstov približno 500 različnih izvajalcev. In nove pesmi se pridno nabirajo v našem arhivu, tako da vam jih zlepa ne bo zmanjkalo.

Pokažite svoj talent!

Tu lahko objavite vaš video ali audio posnetek! Hočem vedeti več ...
Kje lahko najdemo vaš nastop? Hočem vedeti več ...
Vaš komentar:
Prosimo, prijavite se in objavite vaš nastop.
cookieassistant.com