Izvajalci:   A B C Č D E F G H I J K L M N O P Q R S Š T U V W X Y Z Ž
================================================================================================
www.trzalica.com    www.trzalica.com    www.trzalica.com    www.trzalica.com    www.trzalica.com
================================================================================================
	 _______________________________________________________________
	|								|
	| IZVAJALEC: ........................................... D-fact |
	| PESEM: ..... Mavrične Melodije Trascendentalne Skupine D-fact |
	| ALBUM: ....................................... Fashion Victim |
	|_______________________________________________________________|
	|								|
	|   		Tabulatura					|
	|   		Transkripcija: Aleš Godec (AliAs)		|
	|   		email: alias.ag@email.si			|
	|   		Domača stran: www.trzalica.com			|
	|_______________________________________________________________|


D-facti imajo dva kitarista. Eden ima Sedemstrunsko (B E A D G B E), drugi pa ima
šestrunsko  kitaro (B E A D G B  ali  B F# B E A C#). To tablaturo sem napisal za
standardno uglasitev, s tem da pritrdim kapodaster na drugo polje, številke prečk
(tonov, polj,...) pa sem pustil enake kot na standardni uglasitvi - številka 2
je torej prazna struna (ker je kapodaster na drugem polju).
(torej  F# B  E  A  C# F# - kapodaster na drugem polju)!!!


F#|-----------------------------|
C#|-----------------------------|
A |----------------4------------|  --7x
E |-------------4---------------|
B |-2-----2--6------------------|
F#|-2--2------------------------|
    ^
    |
     \___ Ta dva tona ''predstavljata'' nizki ton B na originalni uglasitvi D-factov.
      

F#|------7----------------7----------------7----------------7------------|
C#|----------------------------------------------------------------------|
A |---------8----------------8----------------8----------------8---------|
E |---------------------------------------------------------------9------|
B |-2----------------2---------------------------------2-----------------|
F#|-2----------------2-----------9---------------------2-----------------|

F#|------7----------------7----------------7-----------------7------------|
C#|-----------------------------------------------------------------------|
A |---------8----------------8----------------8-----------------8---------|
E |-----------------------------9----------------------------------9------|
B |-2----------------2----------------2-----------------2-----------------|
F#|-2----------------2----------------2-----------------2-----------------|

F#|------------------------|
C#|------------------------|
A |----------------4-------|  --8x
E |-------------4----------|
B |-2-----2--6-------------|
F#|-2--2-------------------|


D-Fact - Mavrične melodije - indeksirano na Trzalica.com.
Uporabniki, ki so igrali D-Fact - Mavrične melodije, so igrali tudi sledeče pesmi od D-Fact:
Vse ti enkrat vrne se nazaj, Love song, album ČAS, Poglej mamici v oči, Daj dinar,
Čas ameriške dekadence

Namig:

Če se vam niti ne sanja, kako prijeti akord "Absus4" in podobne eksote, se z miško zapeljite nad akord in prikazal se vam bo diagram akorda.

Pokažite svoj talent!

Tu lahko objavite vaš video ali audio posnetek! Hočem vedeti več ...
Kje lahko najdemo vaš nastop? Hočem vedeti več ...
Vaš komentar:
Prosimo, prijavite se in objavite vaš nastop.
cookieassistant.com