Izvajalci:   A B C Č D E F G H I J K L M N O P Q R S Š T U V W X Y Z Ž
================================================================================================
www.trzalica.com    www.trzalica.com    www.trzalica.com    www.trzalica.com    www.trzalica.com
================================================================================================



Artist: SIDDHARTA
Song: ET TU
Album: Rh-
Tabbed by Stanci Skarja 1989.
That's version is my version, like how do I play it. I' m not sure if all this is all right.

G-----------------          G--------------------
D-----------------          D--------------------              This is the first part. Let's call him 1.
A33-0---0--------          A333555------------               Repeat this 2x.
E----------3------ ( 7x)    E-------------------- ( 1x)

G-----------------          G-------------------
D-----------------          D-------------------                This is the 2nd part. Let's call him 2.
A---33-0---0------          A---03030-----------                Repeat it 1x.
E----------3------  ( 1x)   E------------------- ( 1x)

G-----------------          G----------------------------     This is the 3rd part. Let's call him 3.
D-----------------          D----------------------------
A---33-0---0------          A ---333555777777----------
E----------3------  ( 7x)   E---------------------------- ( 1x)

G------------------------------------------------
D-------------3-3-3-3----------------------------            This part is the 4th part. Let's call him 4.
A---3-3-3-3--------------------------------------
E-----------------------3-3-3-3-5-5-5-5---------- ( 2x)

G----------------------------------------------------------
D----------------------------------------------------------           This part is  the 5th part. Let's call
A---3355577777755533355-77-88-------------------------            him 5.
E---------------------------------------------------------- ( 1x)

G--------------------------------------------------------------------------
D--------------------------------------------------------------------------     This part is the 6th part.
A---33 / 8--55 / 8--77 / 8-7733 / 8 / 3--33 / 8 / 5--33 / 8 / 7-----------     Let's call him 6.
E-------------------------------------------------------------------------- ( 1x)

G------------------------------------------------------------------------------------
D------------------------------------------------------------------------------------    This is the 7th part.
A---3333333-5555555-7777777-5555555-3333333-5555555-7777777-888----------------------    Let's call him 7.
E------------------------------------------------------------------------------------- ( 1x)

G------------------------------------------------
D------------------------------------------------     This is the 8th part. Let's call him 8.
A---333-555-77777-555-333-555-777-8--------------
E-------------------------------------------------

STRUCTURE:
1st part  ( 1x
2nd part  ( 1x
1st part  ( 1x
3rd part  ( 1x
4th part  ( 2x
5th part  ( 1x
2nd part  ( 1x
3rd part  ( 1x
1st part  ( 1x
3rd part  ( 1x
4th part  ( 2x
6th part  ( 1x
7th part  ( 1x
4th part  ( 2x
8th part  ( 1x

This is the "et tu".


Siddharta - Et tu v3 - indeksirano na Trzalica.com.
Uporabniki, ki so igrali Siddharta - Et tu v3, so igrali tudi sledeče pesmi od Siddharta:
Orion Lady v2, Homo Carnula v1, THOR v1, Farmer, 01 (nulaena) v2, Klinik v2
Ogromno število pesmi z akordi in tablaturami izvajalca Siddharta najdete tudi na spletni strani YourChords.com pod Siddharta Chords and Tabs.

Namig:

Iskalnik akordov in tablatur www.Glasbenik.net trenutno indeksira približno 7'800 pesmi izpod prstov približno 500 različnih izvajalcev. In nove pesmi se pridno nabirajo v našem arhivu, tako da vam jih zlepa ne bo zmanjkalo.

Pokažite svoj talent!

Tu lahko objavite vaš video ali audio posnetek! Hočem vedeti več ...
Kje lahko najdemo vaš nastop? Hočem vedeti več ...
Vaš komentar:
Prosimo, prijavite se in objavite vaš nastop.
cookieassistant.com