Izvajalci:   A B C Č D E F G H I J K L M N O P Q R S Š T U V W X Y Z Ž
_______________________________________
	|					|
	| IZVAJALEC: ................... D-fact |
	| PESEM: .................... Daj dinar |
	| ALBUM: ............... Fashion Victim |
	|_______________________________________|
	|					|
	|   Besedilo z akordi in tabulatura	|
	|   Transkripcija: Aleš Godec (AliAs)	|
	|   email: alias.ag@email.si		|
	|   Domača stran: www.trzalica.com	|
	|_______________________________________|


D-facti imajo dva kitarista. Eden ima Sedemstrunsko (B E A D G B E), drugi pa ima
šestrunsko  kitaro (B E A D G B  ali  B F# B E A C#). To tablaturo sem napisal za
standardno uglasitev, s tem da pritrdim kapodaster na drugo polje, številke prečk
(tonov, polj,...) pa sem pustil enake kot na standardni uglasitvi - številka 2
je torej prazna struna (ker je kapodaster na drugem polju).
(torej  F# B  E  A  C# F# - kapodaster na drugem polju)!!!

LEGENDA:
	 = palm muted - narahlo zaduši strune
	~ = let ring - strune pusti zveneti
	M = MUTE - zaduši strune


INTRO:
F#|---------------------------------------------------------------|
C#|---------------------------------------------------------------|
A |---------------------------------------------------------------|  --4x
E |---9----9-9-9-9---9----9-9-9-9----9----9-9-9-9----9----9-9-9-9-|
B |-2----2---------2----2----------2----2----------2----2-7-7-7-7-|
F#|-2-7--2-7-7-7-7-2-7--2-7-7-7-7--2-7--2-7-7-7-7--2-7--2-7-7-7-7-|


VERZ 1:
en, dva, dva, tri, dva, dva,...

F#|---------------------------------|
C#|---------------------------------|
A |---------------------------------|  --4x
E |---------------------------------|
B |-2--4------9--4--5--5------2--5--|
F#|-2--2------7--2--3--5------2--3--|
                          


PRE-REFREN 1:
Zdaj Evropa se odpira...

F#|---------------------------------|
C#|---------------------------------|
A |---------------------------------|  --4x
E |---------------------------------|
B |-2--4------9--4--5--5------2--5--|
F#|-2--2------7--2--3--5------2--3--|
                          

F#|-----------------------------|
C#|-----------------------------|
A |-----------------------------|
E |-6------6------6------6------|
B |-4------4------4------4------|
F#|-4------4------4------4------|
     ~~~~~~ ~~~~~~ ~~~~~~ ~~~~~~


REFREN 1:
Daj mi, daj mi, daj dinar...

F#|-------------------------------------------------------------|
C#|-------------------------------------------------------------|
A |-------------------------------------------------------------|  --4x
E |---9----9-9-9-9---9----9-9-9-9----9----9-9-9-9----7-----9----|
B |-2----2---------2----2----------2----2----------2-5---2-7----|
F#|-2-7--2-7-7-7-7-2-7--2-7-7-7-7--2-7--2-7-7-7-7--2-5---2-7----|


VERZ 2:

F#|-----------------|
C#|-----------------|
A |-----------------|
E |-----------------|
B |-2--4------2--2--|
F#|-2--2------2--2--|
      M  M      M  M

Naj tekmovanje se začne, kdo bo number one...

F#|---------------------------------|
C#|---------------------------------|
A |---------------------------------|  --4x
E |---------------------------------|
B |-2--4------9--4--5--5------2--5--|
F#|-2--2------7--2--3--5------2--3--|
                          


PRE-REFREN 2:
Zdaj Evropa se odpira...

F#|---------------------------------|
C#|---------------------------------|
A |---------------------------------|  --4x
E |---------------------------------|
B |-2--4------9--4--5--5------2--5--|
F#|-2--2------7--2--3--5------2--3--|
                          

F#|-----------------------------|
C#|-----------------------------|
A |-----------------------------|
E |-6------6------6------6------|
B |-4------4------4------4------|
F#|-4------4------4------4------|
     ~~~~~~ ~~~~~~ ~~~~~~ ~~~~~~


REFREN 2:
Daj mi, daj mi, daj dinar...

F#|-------------------------------------------------------------|
C#|-------------------------------------------------------------|
A |-------------------------------------------------------------|  --4x
E |---9----9-9-9-9---9----9-9-9-9----9----9-9-9-9----7-----9----|
B |-2----2---------2----2----------2----2----------2-5---2-7----|
F#|-2-7--2-7-7-7-7-2-7--2-7-7-7-7--2-7--2-7-7-7-7--2-5---2-7----|


BRIDGE:
F#|--------------------------|
C#|--------------------------|
A |--------------------------|  --4x
E |---9---7----7-----9-9-9-9-|
B |-2-9---7----5-----7-7-7-7-|
F#|-2-7---5----5-----7-7-7-7-|

F#|----------------|
C#|----------------|
A |----------------|
E |----------------|
B |-2--------------|
F#|-2--------------|
     ~~~~~~~~~~~~~~

Daj dinar, dinar, dinar,....


REFREN 3:
Daj mi, daj mi, daj dinar...

F#|-------------------------------------------------------------|
C#|-------------------------------------------------------------|
A |-------------------------------------------------------------|  --8x
E |---9----9-9-9-9---9----9-9-9-9----9----9-9-9-9----7-----9----|
B |-2----2---------2----2----------2----2----------2-5---2-7----|
F#|-2-7--2-7-7-7-7-2-7--2-7-7-7-7--2-7--2-7-7-7-7--2-5---2-7----|

F#|----|
C#|----|
A |----|
E |----|
B |-2--|
F#|-2--|
      M


D-Fact - Daj dinar - indeksirano na Trzalica.com.
Uporabniki, ki so igrali D-Fact - Daj dinar, so igrali tudi sledeče pesmi od D-Fact:
Vse ti enkrat vrne se nazaj, Love song, Mavrične melodije, album ČAS, Poglej mamici v oči,
Čas ameriške dekadence

Namig:

Če se vam niti ne sanja, kako prijeti akord "Absus4" in podobne eksote, se z miško zapeljite nad akord in prikazal se vam bo diagram akorda.

Pokažite svoj talent!

Tu lahko objavite vaš video ali audio posnetek! Hočem vedeti več ...
Kje lahko najdemo vaš nastop? Hočem vedeti več ...
Vaš komentar:
Prosimo, prijavite se in objavite vaš nastop.
cookieassistant.com