Izvajalci:   A B C Č D E F G H I J K L M N O P Q R S Š T U V W X Y Z Ž
Trenutna ocena: 0
Oceni akorde:
1  2  3  4  5
Transponiraj pesem:
===============================================
w.raiacm  w.raiacm  w.raiacm  w.raiacm  w.raiacm
================================================
#============!!NE PREZRI!!==============
#  Tasrpiaj eoneeaatrai rdtvj jgv ato   
#itrrtcj kab.Ne ae iksneatrkhpai,tme oo 
#dui lseio r cnui zooneaj iasethietrzaj.
#Uoaagaian otl raiaCMj oojn ez sbouoaoi 
# eo oou as att rgnlnidlkdng lseeaivjla 
#   Pra raiaCMn dooj ansotvnethpai.     
#=======================================
#                                       
#                                       
#       Kjer imamo radi glasbo          
#                                       
#=======================================
 ___________________
|		|
|IVJLC ........Sdhra|
|PSM ............ ae|
|ABM .............R-|
|___________________|
|		|
| Tasrpia lsGdc(lA)|
| eal la.geals	|
| Dmc ta:wwtzlc.o	
|___________________|

================================================

EED:
M=MT
=pl ue

iaa1  rmz(tnadaulstv
iaa2  oi(GFDulstv- rpC

ee aej tdjk ont  vm alcoulsnm iaaa n iaaj
tnadoulsn Pio, rg aj gaean rpC(oi.
oiir aovrfei nvbig-,Pio air uivvri.Vet erzin
uii auaue
s krivtbltr zijm iae2)i  eeius aiaiz tnadoulstv

================================================
w.raiacm  w.raiacm  w.raiacm  w.raiacm  w.raiacm
================================================

EZ1 (00  12)

(m b ss D 2

iaa1 (02  12)steooeetm
 C       b      Au4     
|------------------------------
|------------------------------
|-------------0----------0-----
|--1--------3-----1------------
|3--------------0--------------
|------------------------------

 C       b      Au4           F  G
|------------------------------
|------------------------0-----
|-------------0----------------
|--1--------3-----1------------
|3--------------0--------------
|------------------------------

   m         B            ss
Vvcr vti vz,o ie eeunke
        D            C
vojm on ue aopvbjn ape,
         B           ss
n onmve bao,veauaj  ch
        D              G
aij ej doo,aij ed iv.

 C       b      Au4     
|------------------------------
|------------------------------
|-------------0----------0-----
|--1--------3-----1------------
|3--------------0--------------
|------------------------------

 C       b      Au4     
|------------------------------
|------------------------0-----
|-------------0----------------
|--1--------3-----1------------
|3--------------0--------------
|------------------------------

 C       b      Au4     
|------------------------------
|------------------------------
|-------------0----------------
|--1--------3-----1------------
|3--------------0--------------
|------------------------------

   m       B           ss
Peoeaovsle rpvdn tai
         D          C
vej adsg oe  oe egvr,
          B           Au4
krlbiovivzau smuaapaise,
                        m
kjj a atm rt,kos rn i drt
          b
S anrtrk vgeo rt eopo
    ss           
i  rk ii elc,k apshns..


ERN1 (12  14)

     C     
FnsMni-Kncj vt,
           b    C     
peujj el et-t aaaaneorjen
           G    >mvre<
n idm evc saj iijaj

iaa1
 C               D               F               E
|----------------------------------------------------------------|
|----------------------------------------------------------------|
|----------------------------------------------------------------|
|55555-55555-555577777-77777-777711111-11111-111188888-88888-8888|
|33333-33333-333355555-55555-555588888-88888-888866666-66666-6666|
|33333-33333-333355555-55555-555588888-88888-888866666-66666-6666|
      M     M         M     M         M     M         M     M

 C               D               F               G
|----------------------------------------------------------------|
|----------------------------------------------------------------|
|----------------------------------------------------------------|
|55555-55555-555577777-77777-777733333-33333-333355555-55555-5555|
|33333-33333-333355555-55555-555533333-33333-333355555-55555-5555|
|33333-33333-333355555-55555-555511111-11111-111133333-33333-3333|
      M     M         M     M         M     M         M     M    


iaa2
 C               D               F               E
|----------------------------------------------------------------|
|----------------------------------------------------------------|
|----------------------------------------------------------------|
|00000-00000-000022222-22222-222255555-55555-555533333-33333-3333|
|00000-00000-000022222-22222-222255555-55555-555533333-33333-3333|
|00000-00000-000022222-22222-222255555-55555-555533333-33333-3333|
      M     M         M     M         M     M         M     M

 C               D               F               G
|----------------------------------------------------------------|
|----------------------------------------------------------------|
|----------------------------------------------------------------|
|00000-00000-000022222-22222-222255555-55555-555577777-77777-7777|
|00000-00000-000022222-22222-222255555-55555-555577777-77777-7777|
|00000-00000-000022222-22222-222255555-55555-555577777-77777-7777|
      M     M         M     M         M     M         M     M    


EZ2 (14  22)

C B Au4 

iaa1 steooeetm

 C       b      Au4     
|------------------------------
|------------------------------
|-------------0----------0-----
|--1--------3-----1------------
|3--------------0--------------
|------------------------------

 C       b      Au4     
|------------------------------
|------------------------0-----
|-------------0----------------
|--1--------3-----1------------
|3--------------0--------------
|------------------------------

 C       b      F       
|------------------------------
|------------------------------
|-------------0----------------
|--1--------3-----1------------
|3--------------0--------------
|------------------------------

C       b   Au4   D    C
I ammn,t eoia ovsle aiia
       b   Au4   D    C
velp,vet bie eamrahroie
    B          G
j e e a rvd zieo


ERN2 (22  24)

     C     
FnsMni-Kncj vt,
           b    C     
peujj el et-t aaaaneorjen
           G
n idm evc saj iijaj

iaa1
 C               D               F               E
|----------------------------------------------------------------|
|----------------------------------------------------------------|
|----------------------------------------------------------------|
|55555-55555-555577777-77777-777711111-11111-111188888-88888-8888|
|33333-33333-333355555-55555-555588888-88888-888866666-66666-6666|
|33333-33333-333355555-55555-555588888-88888-888866666-66666-6666|
      M     M         M     M         M     M         M     M

 C               D               F               G
|----------------------------------------------------------------|
|----------------------------------------------------------------|
|----------------------------------------------------------------|
|55555-55555-555577777-77777-777733333-33333-333355555-55555-5555|
|33333-33333-333355555-55555-555533333-33333-333355555-55555-5555|
|33333-33333-333355555-55555-555511111-11111-111133333-33333-3333|
      M     M         M     M         M     M         M     M    


iaa2
 C               D               F               E
|----------------------------------------------------------------|
|----------------------------------------------------------------|
|----------------------------------------------------------------|
|00000-00000-000022222-22222-222255555-55555-555533333-33333-3333|
|00000-00000-000022222-22222-222255555-55555-555533333-33333-3333|
|00000-00000-000022222-22222-222255555-55555-555533333-33333-3333|
      M     M         M     M         M     M         M     M

 C               D               F               G
|----------------------------------------------------------------|
|----------------------------------------------------------------|
|----------------------------------------------------------------|
|00000-00000-000022222-22222-222255555-55555-555577777-77777-7777|
|00000-00000-000022222-22222-222255555-55555-555577777-77777-7777|
|00000-00000-000022222-22222-222255555-55555-555577777-77777-7777|
      M     M         M     M         M     M         M     M    


RDE 0:0-0:3

Big e adlln v ea rij d0:0-0:1 rg aj d0:2-0:3

ridl 25  31

iaa1 p .pnvtiktr .
                              x
|------------------------|--------|----------------|
|------------------------|--------|----------------|
|--------7755775577557755|88775577|7755775577557755|
|------------------------|--------|----------------|
|------------------------|--------|----------------|
|------------------------|--------|----------------|
            

iaa2
     x                         x
|--------|----------------|--------|----------------|
|--------|----------------|--------|----------------|
|--------|----------------|--------|----------------|
|--------|----------------|--------|----------------|
|88775577|7755775577557755|88775577|7755775577557755|
|--------|----------------|--------|----------------|
   

rg e:0:2-0:3

iaa1 
     x
|--------|------------------------------------------------|
|--------|------------------------------------------------|
|--------|------------------------------------------------|
|--------|------------------------------------------------|
|66553355|553355335533553366553355665533668866556688665566|
|--------|------------------------------------------------|

|---------------------------------------|
|---------------------------------------|
|---------------------------------------|
|---------------------------------------|
|1-08866881-08866881-0---1-0---1-0886655|
|---------------------1-0---1-0---------|


iaa2
     x
|--------|------------------------------------------------|
|--------|------------------------------------------------|
|--------|------------------------------------------------|
|--------|------------------------------------------------|
|--------|------------------------------------------------|
|33220022|220022002200220033220022332200335533223355332233|

|--------------------------------|
|--------------------------------|
|--------------------------------|
|--------------------------------|
|----------------00--00--00------|
|7755335577553355--22--22--553322|


ERN3 (33  43)

     C     
FnsMni-Kncj vt,
           b    C     
peujj el et-t aaaaneorjen
           G
n idm evc saal..
     C     
FnsMni-Kncj vt,
           b    C     
peujj el et-t aaaaneorjen
           G     m
n idm evc saj iijaj
   D     F   b C      
siiaa,siiaa.

iaa1 (x
 C               D               F               E
|----------------------------------------------------------------|
|----------------------------------------------------------------|
|----------------------------------------------------------------|
|55555-55555-555577777-77777-777711111-11111-111188888-88888-8888|
|33333-33333-333355555-55555-555588888-88888-888866666-66666-6666|
|33333-33333-333355555-55555-555588888-88888-888866666-66666-6666|
      M     M         M     M         M     M         M     M

 C               D               F               G
|----------------------------------------------------------------|
|----------------------------------------------------------------|
|----------------------------------------------------------------|
|55555-55555-555577777-77777-777733333-33333-333355555-55555-5555|
|33333-33333-333355555-55555-555533333-33333-333355555-55555-5555|
|33333-33333-333355555-55555-555511111-11111-111133333-33333-3333|
      M     M         M     M         M     M         M     M


iaa2 (x
 C               D               F               E
|----------------------------------------------------------------|
|----------------------------------------------------------------|
|----------------------------------------------------------------|
|00000-00000-000022222-22222-222255555-55555-555533333-33333-3333|
|00000-00000-000022222-22222-222255555-55555-555533333-33333-3333|
|00000-00000-000022222-22222-222255555-55555-555533333-33333-3333|
      M     M         M     M         M     M         M     M

 C               D               F               G
|----------------------------------------------------------------|
|----------------------------------------------------------------|
|----------------------------------------------------------------|
|00000-00000-000022222-22222-222255555-55555-555577777-77777-7777|
|00000-00000-000022222-22222-222255555-55555-555577777-77777-7777|
|00000-00000-000022222-22222-222255555-55555-555577777-77777-7777|
      M     M         M     M         M     M         M     M




#=======================================
#                                       
#                                       
#       Kjer imamo radi glasbo          
#                                       
#=======================================
================================================
w.raiacm  w.raiacm  w.raiacm  w.raiacm  w.raiacm
================================================


Siddharta - Rave v2 - indeksirano na Trzalica.com.
Uporabniki, ki so igrali Siddharta - Rave v2, so igrali tudi sledeče pesmi od Siddharta:
Orion Lady v2, Homo Carnula v1, THOR v1, Farmer, 01 (nulaena) v2, Klinik v2
Ogromno število pesmi z akordi in tablaturami izvajalca Siddharta najdete tudi na spletni strani YourChords.com pod Siddharta Chords and Tabs.

Namig:

Iskalnik akordov in tablatur www.Glasbenik.net trenutno indeksira približno 7'800 pesmi izpod prstov približno 500 različnih izvajalcev. In nove pesmi se pridno nabirajo v našem arhivu, tako da vam jih zlepa ne bo zmanjkalo.

Pokažite svoj talent!

Tu lahko objavite vaš video ali audio posnetek! Hočem vedeti več ...
Kje lahko najdemo vaš nastop? Hočem vedeti več ...
Vaš komentar:
Prosimo, prijavite se in objavite vaš nastop.
cookieassistant.com