Izvajalci:   A B C Č D E F G H I J K L M N O P Q R S Š T U V W X Y Z Ž
Trenutna ocena: 0
Oceni akorde:
1  2  3  4  5
Transponiraj pesem:
===============================================
w.raiacm  w.raiacm  w.raiacm  w.raiacm  w.raiacm
================================================
#============!!NE PREZRI!!==============
#  Tasrpiaj eoneeaatrai rdtvj jgv ato   
#itrrtcj kab.Ne ae iksneatrkhpai,tme oo 
#dui lseio r cnui zooneaj iasethietrzaj.
#Uoaagaian otl raiaCMj oojn ez sbouoaoi 
# eo oou as att rgnlnidlkdng lseeaivjla 
#   Pra raiaCMn dooj ansotvnethpai.     
#=======================================
#                                       
#                                       
#       Kjer imamo radi glasbo          
#                                       
#=======================================
 ___________________
|		|
|IVJLC ........Sdhra|
|PSM ...........Roke|
|ABM .............R-|
|___________________|
|		|
| Tasrpia lsGdc(lA)|
| eal la.geals	|
| Dmc ta:wwtzlc.o	
|___________________|

================================================

EED:
M=MT
=pl ue
~=ltrn
p=pl f
h=hme n

GAIE:DGCFAD(ntnnze

RNPNCJ KRO:

      gaie ------sadrn gaie 
(aien rjm)	   paiaod)

	# --------  #
	  --------  #
	m --------  m
	m --------  m

auauai nvdzi krivbsdl,s aiaiz ntnnzoulstv-DGCFAD
airnep auauimrt iaotrjulst ae o ij,c abseirl ao
kren tnadiulsti aget grj aeo ipiauektr krej rb
rjt aet aienh

================================================
w.raiacm  w.raiacm  w.raiacm  w.raiacm  w.raiacm
================================================

NR: 0:3-0:5
        x
|----------------|----------------|
|----------------|----------------|
|----------------|----------------|
|--------------5-|--------------7-|
|4-------4-----5-|4-------4-----7-|
|-2-20232-2-2023-|-2-20252-2-2035-|
   M       M        M       M


EZ1 (01  04)

        2
|---------------|------------------------------|
|---------------|------------------------------|
|---------------|------------------------------|
|---------------|------------------------------|
|44455454-------|44477544-------44455454-------|
|----------2----|----------2--------------2----|
         M               M              M      

I ajeamsapiejl is  aovs
i ajeamsapiejl is  aovs
i dss icsoz,d encjzbvv,
z asnpgvrmdsbjmrazeia

        4
|---------------|------------------------------|
|---------------|------------------------------|
|---------------|------------------------------|
|---------------|------------------------------|
|44455454-------|44477544-------44455454-------|
|----------2----|----------2--------------2----|
         M               M              M      

VdsuVlnes oian olp o,
vdsuVlnes oian olp o,
nkrn oait ee ak otn rc
mran aek omjga eoioteo.


ERN1 (05  11)

D           ----
I a anrtsmnm    \
 m    D     #    _ x
vdmj aopiaaj,    
                /
pndmrk,phai o --

 D       F       G       D
|--------------------------------|
|--------------------------------|
|--------------------------------|
|55555555333333335555555577777777| -
|66666666333333335555555555555555|  \
|66666666111111113333333355555555|   
                                     |_2
 D       F                           |
|--------------------------------|   
|--------------------------------|  /
|--------------------------------| -
|5555555533333333----------------|
|66666666333333335-------5-------|
|6666666611111111-3-31343-3-3134-|
                   M       M


EZ2 (11  15)

        5
|---------------|------------------------------|
|---------------|------------------------------|
|---------------|------------------------------|
|---------------|------------------------------|
|44455454-------|44477544-------44455454-------|
|----------2----|----------2--------------2----|
         M               M              M      

O rjtidbt ezom oaisaia
o rjtidbt ezom oaisaia
i onhkzre ipgmvs aiaa
nbsopht dndueupinvv.

        4
|---------------|------------------------------|
|---------------|------------------------------|
|---------------|------------------------------|
|---------------|------------------------------|
|44455454-------|44477544-------44455454-------|
|----------2----|----------2--------------2----|
         M               M              M      

I itg ik ir v diiadmv
i itg ik ir v diiadmv
n oc oebopvbl,njotnmzno
tka v aldl aoopr enb.


ERN2 (15  21)

D           ----
I a anrtsmnm    \
 m    D     #    _ x
vdmj aopiaaj,    
                /
pndmrk,phai o --

 D       F       G       D
|--------------------------------|
|--------------------------------|
|--------------------------------|
|55555555333333335555555577777777|
|66666666333333335555555555555555|
|66666666111111113333333355555555|

 D       F
|--------------------------------|
|--------------------------------|
|--------------------------------|
|5555555533333333----------------|
|66666666333333335-------5-------|
|6666666611111111-3-31343-3-3134-|
                   M       M

 D       F       G       D
|--------------------------------|
|--------------------------------|
|--------------------------------|
|55555555333333335555555577777777|
|66666666333333335555555555555555|
|66666666111111113333333355555555|

 D       F
|----------------|
|----------------|
|----------------|
|5555555533333333|
|6666666633333333|
|6666666611111111|


RDE (22  24)

           ii okk               ii j kk
|-------------------------------------------|
|-----3--343---------------3--353-----------|
|--3--------5--2--------3--------5-hp-------|
|35-------------------35--------------------|
|-------------------------------------------|
|-------------------------------------------|

|---------------------------------------------|
|-----3--343---------------4------------------|
|--3--------5--5--------------5-hp--0--0------|
|35---------------0---------------------------|
|---------------------------------------------|
|---------------------------------------------|


UR: 0:6-0:8

D          
I a anrtsmnm
 m    D     #
vdmj aopiaaj,
            G  m
pndmrk,phai oooo

D          
I a anrtsmnm
 m    D     #
vdmj aopiaaj,
            G
pndmrk,phai o

 D       F       G      m     D            G      m
|-------------------------------------------------------|
|-------------------------------------------------------|
|-------------------------------------------------------|
|------------33335------------5------------5------------|
|66666666333333335------------6------------5------------|
|66666666111111113------------6------------3------------|
  ~~~~~~~~~~~~ ~~~~~~~~~~~~ ~~~~~~~~~~~~

 D            G      m     D             m
|-------------------------------------------------
|-------------------------------------------------
|-------------------------------------------------
|5------------5------------5----------------------
|6------------5------------6----------------------
|6------------3------------6----------------------
  ~~~~~~~~~~~~ ~~~~~~~~~~~~ ~~~~~~~~~~~~~~~~~~~~~~



#=======================================
#                                       
#                                       
#       Kjer imamo radi glasbo          
#                                       
#=======================================
================================================
w.raiacm  w.raiacm  w.raiacm  w.raiacm  w.raiacm
================================================


Siddharta - Rooskie v2 - indeksirano na Trzalica.com.
Uporabniki, ki so igrali Siddharta - Rooskie v2, so igrali tudi sledeče pesmi od Siddharta:
Orion Lady v2, Homo Carnula v1, THOR v1, Farmer, 01 (nulaena) v2, Klinik v2
Ogromno število pesmi z akordi in tablaturami izvajalca Siddharta najdete tudi na spletni strani YourChords.com pod Siddharta Chords and Tabs.

Namig:

Po registraciji (ki vam bo vzela le 10 sekund, se spomnite?) boste lahk uporabljai vaš kotiček - čisto vaš delček portala www.Glasbenik.net z vašimi pesmaricami itd.

Pokažite svoj talent!

Tu lahko objavite vaš video ali audio posnetek! Hočem vedeti več ...
Kje lahko najdemo vaš nastop? Hočem vedeti več ...
Vaš komentar:
Prosimo, prijavite se in objavite vaš nastop.
cookieassistant.com