Izvajalci:   A B C Č D E F G H I J K L M N O P Q R S Š T U V W X Y Z Ž
Trenutna ocena: 0
Oceni akorde:
1  2  3  4  5
Transponiraj pesem:
===============================================
w.raiacm  w.raiacm  w.raiacm  w.raiacm  w.raiacm
================================================
#============!!NE PREZRI!!==============
#  Tasrpiaj eoneeaatrai rdtvj jgv ato   
#itrrtcj kab.Ne ae iksneatrkhpai,tme oo 
#dui lseio r cnui zooneaj iasethietrzaj.
#Uoaagaian otl raiaCMj oojn ez sbouoaoi 
# eo oou as att rgnlnidlkdng lseeaivjla 
#   Pra raiaCMn dooj ansotvnethpai.     
#=======================================
#                                       
#                                       
#       Kjer imamo radi glasbo          
#                                       
#=======================================
 ___________________
|		|
|IVJLC ........Sdhra|
|PSM ...........Vnme|
|ABM .............R-|
|___________________|
|		|
| Tasrpia lsGdc(lA)|
| eal la.geals	|
| Dmc ta:wwtzlc.o	
|___________________|

================================================

EED:
M=MT
=pl ue
~=ltrn

GAIE:DGCFAD(ntnnze

RNPNCJ KRO:

      gaie ------sadrn gaie 
(aien rjm)	   paiaod)

	  --------  
	  --------  
	m --------  m
	m --------  m
	# --------  
	  --------  #
	  --------  

auauai nvdzi krivbsdl,s aiaiz ntnnzoulstv-DGCFAD
airnep auauimrt iaotrjulst ae o ij,c abseirl ao
kren tnadiulsti aget grj aeo ipiauektr krej rb
rjt aet aienh

================================================
w.raiacm  w.raiacm  w.raiacm  w.raiacm  w.raiacm
================================================


NR: 0:0-0:7

       A     B
Vssc aoik epgea,
    A    m        m
t egea arts aldv b.
   G    A      m
L oo apma el anj,
         m          m
jzn rt arlbmcelc ael.

|------------|
|------------|
|------------| -x
|------------|
|------------|
|7-557--5--4-|


EZ1 (04  11)

Za ivcnbjnavpan djn e eai.
Djnmmr mkit oae,soavoekv,

|------------|
|------------|
|------------| -x
|------------|
|------------|
|7-557--5--4-|
      

p an onht zle vjpns  gead ez.

|----------------------
|----------------------
|----------------------
|------------------7---
|------------------7---
|7-557--5--32100---5---
      

|------------------------------------
|------------------------------------
|------------------------------------
|------------------------------------
|------------------------------------
|7-557--5--321000345-----------------


ERN1 (11  13)

    G    A    B
Nmj ottl uat oie
   A  E         m
i sansiknmkjvj c.
            B
I  tl edvj iai
   A  m           B
k zeod ez jht vjnvi

 G      A      B      A      E      A      B
|--------------------------------------------------
|--------------------------------------------------
|--------------------------------------------------
|5---5557---7779---9997---7772---2227---7779-------
|5---5557---7779---9997---7772---2227---7779-------
|3---3335---5557---7775---5550---0005---5557-------
                                            MMMMMM

 G      A      B      A      E      A      B
|-------------------------------------------------|
|-------------------------------------------------|
|-------------------------------------------------|
|5---5557---7779---9997---7772---2227---7779------|
|5---5557---7779---9997---7772---2227---7779------|
|3---3335---5557---7775---5550---0005---5557------|
                                            ~~~~~~

EZ2 (13  20)

 aais orls  ieis vj eo
i eiis aiisoegaevzmj.
 ivd d itb ooeud irb kr,
n aa  o ovrhmrkj,kj etl oa aj ankoj o
'ett o aeusi  odb..kt'

          x
|-------------------|-----|
|-------------------|-----|
|-----1-11-11-------|-----|
|9-------------2----|9----|
|-------------------|-----|
|-------------------|-----|
  M    M        M     M 


ERN2 (20  22)

    G            B       --
Nmj ot a eds,nmj ot a eds, \_2
    E            B         /
nmj ot a eds,nmj ooooos. --

 G        A      B      A      E      A      B
|---------------------------------------------------------|
|---------------------------------------------------------|
|---------------------------------------------------------|
|--5---5557---7779---9997---7772---2227---7779----9----9--|
|555---5557---7779---9997---7772---2227---7779---99---99--|
|333---3335---5557---7775---5550---0005---5557---77---77--|
                                                    M 

 G      A      B      A      E      A      B
|---------------------------------------------------
|---------------------------------------------------
|---------------------------------------------------
|5---5557---7779---9997---7772---2227---777-----9---
|5---5557---7779---9997---7772---2227---777---------
|3---3335---5557---7775---5550---0005---5557--------
                                                   M

RDE (22  33)

A  E

   m            F E
Ncjbmvezt aeuuuu
   m     A      F E
n vjncntl oeuuuu
   m             m
aven a aebmgeu
     F
i o oa ggaeptgu

   m   DE       m
Ncjbmvezt aeu
      #
azln r rzzjbnie

 B             E 
|------------------------------|
|------------------------------|
|--------------9---------------|
|999----999----9--777----777777|
|999----999----7--777----777777|
|777----777-------555----555555|
    M      M         M   

 E           A #
|----------------------------|
|----------------------------|
|----------------------------|
|2----222----7--444----444444|
|2----222----7--444----444444|
|0----000----5--222----222222|
  M      M         M   

   m   DE       m
Ncjbmvezt aei,
      #       A  m
azln r,krtg e aods.
   B  A  m
Mm ot aods.

 B       E       E       A #     A B      m  A B
|---------------------------------------------------
|---------------------------------------------------
|--------9------------------------------------------
|4-------9------72-------7---------4---------779----
|2-------7------72-------7-------002---------779----
|2--------------50-------5-------002---------557----
  ~~~~~~   ~~~~~~ ~~~~~~   ~~~~~~   M           M


ERN3 (33  42)

    G    A    B
Nmj ottl uat oie
   A  E         m
i sansiknmkjvj c.
            B
I  tl edvj iai
   A  m           B
k zeod ez jht vjnvi

    G            B       --
Nmj ot a eds,nmj ot a eds, \_2
    E            B         /
nmj ot a eds,nmj ooooos. --

 G      A      B      A      E      A      B
|-------------------------------------------------------|
|-------------------------------------------------------|
|-------------------------------------------------------| -x
|5---5557---7779---9997---7772---2227---7779----9----9--|
|5---5557---7779---9997---7772---2227---7779---99---99--|
|3---3335---5557---7775---5550---0005---5557---77---77--|
                                                    M 

 G      A      B      A      E      A      B
|--------------------------------------------------------|
|--------------------------------------------------------|
|--------------------------------------------------------|
|5---5557---7779---9997---7772---2227---7779-------------|
|5---5557---7779---9997---7772---2227---7779-------------|
|3---3335---5557---7775---5550---0005---5557-------------|
                                            ~~~~~~~~~~~~~



#=======================================
#                                       
#                                       
#       Kjer imamo radi glasbo          
#                                       
#=======================================
================================================
w.raiacm  w.raiacm  w.raiacm  w.raiacm  w.raiacm
================================================


Siddharta - Venom e v2 - indeksirano na Trzalica.com.
Uporabniki, ki so igrali Siddharta - Venom e v2, so igrali tudi sledeče pesmi od Siddharta:
Orion Lady v2, Homo Carnula v1, THOR v1, Farmer, 01 (nulaena) v2, Klinik v2
Ogromno število pesmi z akordi in tablaturami izvajalca Siddharta najdete tudi na spletni strani YourChords.com pod Siddharta Chords and Tabs.

Namig:

Iskalnik akordov in tablatur www.Glasbenik.net trenutno indeksira približno 7'800 pesmi izpod prstov približno 500 različnih izvajalcev. In nove pesmi se pridno nabirajo v našem arhivu, tako da vam jih zlepa ne bo zmanjkalo.

Pokažite svoj talent!

Tu lahko objavite vaš video ali audio posnetek! Hočem vedeti več ...
Kje lahko najdemo vaš nastop? Hočem vedeti več ...
Vaš komentar:
Prosimo, prijavite se in objavite vaš nastop.
cookieassistant.com