Izvajalci:   A B C Č D E F G H I J K L M N O P Q R S Š T U V W X Y Z Ž
Trenutna ocena: 0
Oceni akorde:
1  2  3  4  5
Transponiraj pesem:
===============================================
w.raiacm  w.raiacm  w.raiacm  w.raiacm  w.raiacm
================================================
#============!!NE PREZRI!!==============
#  Tasrpiaj eoneeaatrai rdtvj jgv ato   
#itrrtcj kab.Ne ae iksneatrkhpai,tme oo 
#dui lseio r cnui zooneaj iasethietrzaj.
#Uoaagaian otl raiacmj oojn ez sbouoaoi 
# eo oou as att rgnlnidlkdng lseeaivjla 
#   Pra raiaCMn dooj ansotvnethpai.     
#=======================================
#                                       
#                                       
#       Kjer imamo radi glasbo          
#                                       
#=======================================
 ___________________
|		|
|IVJLC ........Sdhra|
|PSM .........Cko ra|
|ABM .............R-|
|___________________|
|		|
| Tasrpia lsGdc(lA)|
| eal la.geals	|
| Dmc ta:wwtzlc.o	
|___________________|


EED:
M=MT
=pl ue
~=ltrn

================================================
w.raiacm  w.raiacm  w.raiacm  w.raiacm  w.raiacm
================================================

EZ1 (00  05)

|--------------------------
|--------------------------
|--------------------------
|6----6--6----6--6----6--6-
|---46-46---46-46---46-46--
|--------------------------
  M  M  M       M

K edhjmveatg iej kl a,
s esrsjmkmt oi j eps.
K edjmm as s ojptm ait o,
ndmsiap at idrn o

|------------------------|
|------------------------|
|------------------------|
|6--6-----------6--------|
|------7-----7-----------|
|4444--0-----0--4--------|
           M  ~~~~~~~~

K ezvj skden zaa
n ruvapseotkrzld.Kjnjnrdm
I on oaa e s eglm npiik sg ae
s aseiinjemsol ae ae ae aaaa..

.l aamee   aamee   aamee   aaaaaaaaaa.
|------------------------------------------
|------------------------------------------
|------------------------------------------
|8-----------------------------------------
|6-------7-------7-------7-----------------
|--------0-------0-------0-----------------
               


ERN1 (05  13)

   #        B
N rdn evsleope
   #         #
n rdn ak ea s.
   #                   #
N beejj ekjia nkjpza,
      A    F          # A      Dm
ooisb a a aaaaaje nsonmvekrrbmtm

 Dm                       C                A
|------------------------------------------------------|
|------------------------------------------------------|
|------------------------------------------------------| -x
|8----8--8--8---9---9--9--1---1--1-1-1-1-1-8----8--8--8|
|6---66--6--6--99---9--9--1-1-1-11-1-1-1-1-8---88--8--8|
|6---66--6--6--77---7--7--9-9----9-9-9-9-9-6---66--6--6|
                   M                           

 F                           C        A      #
|----------------------------------------------------------|
|----------------------------------------------------------|
|----------------------------------------------------------|
|1--1--1--1--1-1---9----9----1---1--1-8--------------------|
|9-99-99-99-99----99---99----1-1-1-11-8-----66--6--66------|
|9-99-99-99-99----77---77----9-9----9-6-------46-46-6------|
                                ~~~~~    ~~~~~~


EZ2 (13  22)

S endjm am aptpns ocdz,
amrao o evd alpidlnb.
I j omj aktrm e euia aj
Vrae ajhn,utai es a.

|------------------------|
|------------------------|
|------------------------|
|6--6-----------6--------|
|------7-----7-----------|
|4444--0-----0--4--------|
           M  ~~~~~~~~

I osseeos lbeiee
otn en sirzla,t oivpea.
I on ae aii nuae vj il,
k oae an rdn rv et ezm,zm,zm,zaaaa.

.l aamee   aamee   aamee   aaaaaaaaaa.
|------------------------------------------
|------------------------------------------
|------------------------------------------
|8-----------------------------------------
|6-------7-------7-------7-----------------
|--------0-------0-------0-----------------
               


ERN2 (22  30)

   #        B
N rdn evsleope
   #         #
n rdn ak ea s.
   #                   #
N beejj ekjia nkjpza,
      A    F          # A      Dm
ooisb a a aaaaaje nsonmvekrrbmtm

 Dm                       C                A
|------------------------------------------------------|
|------------------------------------------------------|
|------------------------------------------------------| -x
|8----8--8--8---9---9--9--1---1--1-1-1-1-1-8----8--8--8|
|6---66--6--6--99---9--9--1-1-1-11-1-1-1-1-8---88--8--8|
|6---66--6--6--77---7--7--9-9----9-9-9-9-9-6---66--6--6|
                   M                           

 F                           C        A      #
|----------------------------------------------------------|
|----------------------------------------------------------|
|----------------------------------------------------------|
|1--1--1--1--1-1---9----9----1---1--1-8--------------------|
|9-99-99-99-99----99---99----1-1-1-11-8-----66--6--66------|
|9-99-99-99-99----77---77----9-9----9-6-------46-46-6------|
                                ~~~~~    ~~~~~~


RDE (30  40)

Dm B C  #

Dm               
K eosaaozae oaii nsmcl,
C                   #
k eosaavctsimmn,k evskjb.

 Dm                    C           #
|--------------------------------------------|
|--------------------------------------------|
|--------------------------------------------|
|9-9-998--8------------8-8-886--6------------|
|--------------------------------------------|
|--------------------------------------------|

Dm                 
K ezvdm,d s a vt en lt,
Gm              #
l at ai a ng aje o

 Dm             Gm      #
|-------------------------------|
|-------------------------------|
|-------------------------------|
|9--8-----9-----8--6-----4------|
|-------------------------------|
|-------------------------------|

       C        Dm     #
N rdn ia aseiij o m eznm e rgd.
       C        Dm      #
N rdn ia aseiij o l ugemm sk o)

 B      #     Dm    A
|--------------------------
|--------------------------
|-------------------------- -2
|4-4----------8-8---3-3----
|--------------------------
|--------------------------

 #     A        Dm       A        Gm
N rdn ia aseiij o,n rdn ia aseiij o.
    A  F
I a ai o njzrbmt,i a ai o

 Gm   #   Dm  #   Gm   #    F
|-----------------------------------------------
|-----------------------------------------------
|-----------------------------------------------
|4--------8-------4---------9-8--4-6--9-8--4-6--
|-----------------------------------------------
|-----------------------------------------------


ERN3 (40  44)

   #        B
N rdn evsleope
   #         #
n rdn ak ea s.
   #                   #
N beejj ekjia nkjpza,
      A    F          # A      Dm
ooisb a a aaaaaje nsonmvekrrbmtm

 Dm                       C                A
|------------------------------------------------------|
|------------------------------------------------------|
|------------------------------------------------------| -x
|8----8--8--8---9---9--9--1---1--1-1-1-1-1-8----8--8--8|
|6---66--6--6--99---9--9--1-1-1-11-1-1-1-1-8---88--8--8|
|6---66--6--6--77---7--7--9-9----9-9-9-9-9-6---66--6--6|
                   M                           

 F                           C        A       Dm
|----------------------------------------------------|
|----------------------------------------------------|
|----------------------------------------------------|
|1--1--1--1--1-1---9----9----1---1--1-88--8--8-------|
|9-99-99-99-99----99---99----1-1-1-11---68-68-6------|
|9-99-99-99-99----77---77----9-9----9---------6------|
                                    ~~~~~~


Siddharta - Ciklon orka - indeksirano na Trzalica.com.
Uporabniki, ki so igrali Siddharta - Ciklon orka, so igrali tudi sledeče pesmi od Siddharta:
Orion Lady v2, Homo Carnula v1, THOR v1, Farmer, Klinik v2, 01 (nulaena) v2
Ogromno število pesmi z akordi in tablaturami izvajalca Siddharta najdete tudi na spletni strani YourChords.com pod Siddharta Chords and Tabs.

Namig:

Po registraciji (ki vam bo vzela le 10 sekund, se spomnite?) boste lahk uporabljai vaš kotiček - čisto vaš delček portala www.Glasbenik.net z vašimi pesmaricami itd.

Pokažite svoj talent!

Tu lahko objavite vaš video ali audio posnetek! Hočem vedeti več ...
Kje lahko najdemo vaš nastop? Hočem vedeti več ...
Vaš komentar:
Prosimo, prijavite se in objavite vaš nastop.
cookieassistant.com