Izvajalci:   A B C Č D E F G H I J K L M N O P Q R S Š T U V W X Y Z Ž
Trenutna ocena: 0
Oceni akorde:
1  2  3  4  5
Transponiraj pesem:
===============================================
w.raiacm  w.raiacm  w.raiacm  w.raiacm  w.raiacm
================================================
#============!!NE PREZRI!!==============
#  Tasrpiaj eoneeaatrai rdtvj jgv ato   
#itrrtcj kab.Ne ae iksneatrkhpai,tme oo 
#dui lseio r cnui zooneaj iasethietrzaj.
#Uoaagaian otl raiacmj oojn ez sbouoaoi 
# eo oou as att rgnlnidlkdng lseeaivjla 
#   Pra raiaCMn dooj ansotvnethpai.     
#=======================================
#                                       
#                                       
#       Kjer imamo radi glasbo          
#                                       
#=======================================
 ___________________
|		|
|IVJLC ........Sdhra|
|PSM ............Jpn|
|ABM .............R-|
|___________________|
|		|
| Tasrpia lsGdc(lA)|
| eal la.geals	|
| Dmc ta:wwtzlc.o	
|___________________|


EED:
M=MT
=pl ue
\=siedw

GAIE:DGCFAD(ntnnze

RNPNCJ KRO:

      gaie ------sadrn gaie 
(aien rjm)	   paiaod)

	  --------  
	  --------  
	# --------  m
	m --------  m
	m --------  m

auauai nvdzi krivbsdl,s aiaiz ntnnzoulstv-DGCFAD
airnep auauimrt iaotrjulst ae o ij,c abseirl ao
kren tnadiulsti aget grj aeo ipiauektr krej rb
rjt aet aienh

================================================

NR: 0:0-0:1

|--------------------------------|
|--------------------------------|
|--------------------------------|
|5--5----5--5----5--5------------|
|5--5----5--5----5--5------------|
|30030000300300003003000000000000|
       

|--------------------------------|
|--------------------------------|
|--------------------------------|
|5--5----5--5-----2-4-5----------|
|5--5----5--5-----2-4-5----------|
|300300003003000000-2-30000000000|
      M M 

|--------------------------------|
|--------------------------------|
|--------------------------------|
|5--5----5--5----5--4-5-4--------|
|5--5----5--5----5--4-5-4--------|
|30030000300300003002030200000000|
         

|--------------------------------|
|--------------------------------|
|--------------------------------|
|5--5----5--5----2--4-52---------|
|5--5----5--5----2--4-52---------|
|30030000300300000002030-0000002-|
          

|--------------------------------|
|--------------------------------|
|--------------------------------|
|--------------------------------|
|--------------------------------|
|0203-0-20203-0-97971--------0-7-|

|----------------------------------
|----------------------------------
|----------------------------------
|----------------------------------
|--------------------------------9-
|20203-0-20203-0-97971--------0-7--

|--------------------------------|
|--------------------------------|
|--------------------------------|
|--------------------------------|
|--------------------------------|
|0203-0-20203-0-97971--------0-7-|

|---------------------------------
|---------------------------------
|---------------------------------
|---------------------------------
|---------------------------------
|20203-0-20203-0-97971--------0---


EZ1 (05  11)

 m             B
Dmj en ojodle ta,
 m          m
bl tc eem rgm
 E            m
Duezed djm rjj,
 E           m
han oc aej al.


R-ERN1 (11  12)

 G     A     Fm    B     G     A     Fm    G
|------------------------------------------------|
|---3-----5-----2-----3-----3-----5-----2-----3--|
|--------------------4---------------------------|
|--5-----7-----4----4------5-----7-----4-----5---|
|-5-----7-----4----2------5-----7-----4-----5----|
|3-----5-----2-----------3-----5-----2-----3-----|

    G   A
Gea e  eo
 #      B
kpj aon aao
             A
n esrhz ursj a,
 #     G
t oabt a.


ERN1 (13  14)

 G       A       Fm      B
|--------------------------------|
|--------------------------------|
|------------------------44444444|
|55555555777777774444444444444444|
|55555555777777774444444422222222|
|333333335555555522222222--------|

 G       A       Fm      G
|---------------------------------
|---------------------------------
|---------------------------------
|555555557777777744444444555555-5-
|555555557777777744444444555555---
|3333333355555555222222223333333--
                                M

        A  Fm     m
Bl sr  eo  eis iihrzn,
        A Fm     
i dnte ca eg oiatm


EZ2 (14  20)

 E               B
|---------------------------------|
|---------------------------------|
|---------------------------------| -x
|---------------------------------|
|-----2---------------------------|
|20023-222000000097791-----------7|
                  

 E          B
Koamhosd agao
 m           B
nz m drl  aoto
 E           m
va oldvsb oimr
 E            B
pe bonunjpeeeze.


ERN2 (20  22)

 G       A       Fm      B
|--------------------------------|
|--------------------------------|
|------------------------44444444|
|55555555777777774444444444444444|
|55555555777777774444444422222222|
|333333335555555522222222--------|

 G       A       Fm      G
|---------------------------------
|---------------------------------
|---------------------------------
|555555557777777744444444555555-5-
|555555557777777744444444555555---
|3333333355555555222222223333333--
                                M

            A  Fm     m
Zeiobl sr  eo  eis iihrzn,
        A Fm     
i dnte ca eg oiatm


R-RDE (22  23)

 G     A     Fm    B     G     A     Fm    G
|------------------------------------------------|
|---3-----5-----2-----3-----3-----5-----2-----3--|
|--------------------4---------------------------|
|--5-----7-----4----4------5-----7-----4-----5---|
|-5-----7-----4----2------5-----7-----4-----5----|
|3-----5-----2-----------3-----5-----2-----3-----|

    G   A
Gea e  eo
 #       m
kpj  kaignj,
             A
n esrhz ursj a,
 #     G
t oabt a.


RDE (23  32)

eraaaaaaaaaaa..
|------------------------------------------|
|------------------------------------------|
|------------------------------------------| ir tuaj o,gr o o,. 
|------------------------------------------| s oeoirm  ammtdthio 
|1-41-41-31-31-21-21-11-11-01-0999988887777|
|1-21-21-11-11-01-09--9--8--8--777766665555|

.aaaaaaaj
|--------------------------------|
|--------------------------------|
|--------------------------------|
|5--5--5-5--5-5-55--5--5-5--5-5-5|
|5--5--5-5--5-5-55--5--5-5--5-5-5|
|30030030300303033003003030030303|
              

J aaa,j aaa,j aaa,j aaa.
|--------------------------------|
|--------------------------------|
|--------------------------------| -x
|5--5----5--5----5--4-5-4--------|
|5--5----5--5----5--4-5-4--------|
|30030000300300003002030200000000|
         

 G            #  G
Duezed djm rjj,
 G     A     #  G
han oc aej al,
 G        Fm 
va oldvsb oimr
 G         Fm G  A  m
pe bonunjpeeezeeeeeeeee.

 G       A       Fm      G
|--------------------------------|
|--------------------------------|
|--------------------------------| -x
|--------------------------------|
|55555555777777774444444455555555|
|33333333555555552222222233333333|\
                                   
 G       A   Fm  G                 \
|--------------------------------|  
|--------------------------------|  \
|--------------------------------|   
|--------------------------------|---) s oeoirm  ammtdthio
|55555555777744445555555555555555|   
|33330333555522223333033333330333|  /
                                    
 G       A   Fm  G       A       B /
|------------------------------------------------|
|------------------------------------------------|
|------------------------------------------------|
|------------------------------------------------|
|555555557777444455555555777777779999999999999999|
|333303335555222233330333555505557777777777777777|



ERN3 (32  40)

 G       A       Fm      B
|--------------------------------|
|--------------------------------|
|------------------------44444444|-\
|55555555777777774444444444444444|  
|55555555777777774444444422222222|  \
|333333335555555522222222--------|  |
                                    |
 G       A       Fm      G          |-3
|---------------------------------  |
|---------------------------------  |
|---------------------------------  
|555555557777777744444444555555-5--/
|555555557777777744444444555555---
|3333333355555555222222223333333--
                                M

            A  Fm     m
Zeiobl sr  eo  eis iihrzn,
        A Fm     
i dnte ca eg oiatm
        A  Fm     m
Bl sr  eo  eis iihrzn,
        A Fm     
i dnte ca eg oiatm



#=======================================
#                                       
#                                       
#       Kjer imamo radi glasbo          
#                                       
#=======================================
================================================
w.raiacm  w.raiacm  w.raiacm  w.raiacm  w.raiacm
================================================


Siddharta - Japan v2 - indeksirano na Trzalica.com.
Uporabniki, ki so igrali Siddharta - Japan v2, so igrali tudi sledeče pesmi od Siddharta:
Orion Lady v2, Homo Carnula v1, THOR v1, Farmer, 01 (nulaena) v2, Klinik v2
Ogromno število pesmi z akordi in tablaturami izvajalca Siddharta najdete tudi na spletni strani YourChords.com pod Siddharta Chords and Tabs.

Namig:

Iskalnik akordov in tablatur www.Glasbenik.net trenutno indeksira približno 7'800 pesmi izpod prstov približno 500 različnih izvajalcev. In nove pesmi se pridno nabirajo v našem arhivu, tako da vam jih zlepa ne bo zmanjkalo.

Pokažite svoj talent!

Tu lahko objavite vaš video ali audio posnetek! Hočem vedeti več ...
Kje lahko najdemo vaš nastop? Hočem vedeti več ...
Vaš komentar:
Prosimo, prijavite se in objavite vaš nastop.
cookieassistant.com