Izvajalci:   A B C Č D E F G H I J K L M N O P Q R S Š T U V W X Y Z Ž
Trenutna ocena: 0
Oceni akorde:
1  2  3  4  5
Transponiraj pesem:
===============================================
w.raiacm  w.raiacm  w.raiacm  w.raiacm  w.raiacm
================================================
#============!!NE PREZRI!!==============
#  Tasrpiaj eoneeaatrai rdtvj jgv ato   
#itrrtcj kab.Ne ae iksneatrkhpai,tme oo 
#dui lseio r cnui zooneaj iasethietrzaj.
#Uoaagaian otl raiaCMj oojn ez sbouoaoi 
# eo oou as att rgnlnidlkdng lseeaivjla 
#   Pra raiaCMn dooj ansotvnethpai.     
#=======================================
#                                       
#                                       
#       Kjer imamo radi glasbo          
#                                       
#=======================================
 ___________________
|		|
|IVJLC ........Sdhra|
|PSM ............E u|
|ABM .............R-|
|___________________|
|		|
| Tasrpia lsGdc(lA)|
| eal la.geals	|
| Dmc ta:wwtzlc.o	
|___________________|

================================================

EED:
M=MT
=pl ue
~=ltrn
p=pl f
h=hme n
/=sieu
\=siedw
b  edu aoppsibn z / oa

GAIE:DGCFAD(ntnnze

RNPNCJ KRO:

      gaie ------sadrn gaie 
(aien rjm)	   paiaod)

	  --------  #
	m --------  m
	  --------  b
	  --------  
	m --------  m
	b --------  b
	m --------  m
	b --------  #

auauai nvdzi krivbsdl,s aiaiz ntnnzoulstv-DGCFAD
airnep auauimrt iaotrjulst ae o ij,c abseirl ao
kren tnadiulsti aget grj aeo ipiauektr krej rb
rjt aet aienh

================================================
w.raiacm  w.raiacm  w.raiacm  w.raiacm  w.raiacm
================================================

EZ1 (00  10)

|----------|
|----------|
|91pp-91pp-| -x
|----------|
|----------|
|----------|

   m   b    D  B
Npien eodleoto u
   m  B    D B
d apnavt   jd,
   m   b    D   B
z aeetd bjl bjlb,
 m  B   b  F  G
dke i orzi ez...p.

   m     b      m  b
Vekrsoieij ziio
  D  B        D B
i inzvhbtza a i aai,
   m   B     m   b   D  B  E  F
kiovr inkepba,s ej orl s a za.
   m  B       D    B
Za dmn rdsdnrz ezvl,
   m   b     D  b
n bautoe rg ib i
   m    B     m  B   m  b
sutlmtkmdoiz m eoa
   b    F    m
t m,k iven ijr


ERN1 (10  15)

 C    m   F    
|------------------|
|------------------|
|------------------| -x
|5--------3--------|
|3--------3--------|
|3--------1--------|
  ~~~~~~~~ ~~~~~~~~

    m         C
I ooooo rz enpe,
     E     F
vzaoze  io e,
G       m F  G     
ansenidaaaanvej ozmn
   E    F     (m F D  b  G)sl
k oiotb int lduu.

 G        D    b F  m
|--------------------------
|--------------------------
|-------------------------- -rf e oo
|5--------7------1--2------
|5--------5------8--0------
|3--------5------8--0------
  ~~~~~~~~ ~~~~~~ ~~ ~~~~~~

 G               m        E  F    G
|----------------------------------------
|-------------------------6--1--1-8------
|-7------8-hp------5578757-77--7---------
|5---------------------------------------
|----------------------------------------
|----------------------------------------


EZ2 (15  25)

aajvnesl zrfea
|--------------------------|
|--------------------------|
|---b----b----b----b-091pp-|
|71---71---71---71---------|
|--------------------------|
|--------------------------|

|------------------1-1-1------------------|
|--01b---01b---01b-------1-1-1h11\----61--|
|1-----1-----1----------------------------|
|-----------------------------------------|
|-----------------------------------------|
|-----------------------------------------|

|----------|
|----------|
|91pp-91pp-| -x
|----------|
|----------|
|----------|

   m   B     D  B
Vaamj aottb asjj
   m    B    D    b
vmn mhat c oi akia
   m   b      m   B
vepelt in eezi,
    m  b  b    
b amn llpnsso rpl

   m   B     m  B
Be bies boe aou,
   m    b    D B
vmj ies ars kkrsrp
   m   b     m   b
ns aj ipoa aiehrj,
   b    F    m
t m in rdonke.


ERN2 (25  31)

 C    m   F    
|------------------|
|------------------|
|------------------| -x
|5--------3--------|
|3--------3--------|
|3--------1--------|
  ~~~~~~~~ ~~~~~~~~

    m         C
I ooooo rz enpe,
     E     F G
vzaoze  io e,an oc..


RDE (31  34)

 C      m     F      
|--------------------------|
|--------------------------|
|--------------------------|
|55-----------33-----------|
|33-----------33-----------|
|33-----------11-----------|
         M            M

             E    F  
Vaamj aottb asjj

 C      m     F      
|--------------------------|
|--------------------------|
|--------------------------|
|55-55--------33-33--------|
|33-33--------33-33--------|
|33-33--------11-11--------|
         M  M         M  M

             E     F  
vmn mhat c oi aa

 C       E       F       G
|--------------------------------|
|--------------------------------|
|--------------------------------| -x
|--------------------------------|
|33333333222222223333333355555555|
|33333333000000001111111133333333|
 

              m      
vepelt in eezi nzl
          G      C
vepelt in eezi nzl
          m      G
ns aj nzvjnab rdaa


ERN3 (34  13)

 C    m   F    
|------------------|
|------------------|
|------------------| -x
|5--------3--------|
|3--------3--------|
|3--------1--------|
  ~~~~~~~~ ~~~~~~~~

    m         C
I ooooo rz enpe,
     E     F
vzaoze  io e,
G       m F  G     
ansenidaaaanvej ozmn
   E    F      m F D  b  G
k oiotb int lduu.

 G        D    b F  m
|--------------------------
|--------------------------
|--------------------------
|5--------7------1--2------
|5--------5------8--0------
|3--------5------8--0------
  ~~~~~~~~ ~~~~~~ ~~ ~~~~~~



#=======================================
#                                       
#                                       
#       Kjer imamo radi glasbo          
#                                       
#=======================================
================================================
w.raiacm  w.raiacm  w.raiacm  w.raiacm  w.raiacm
================================================


Siddharta - Et tu v2 - indeksirano na Trzalica.com.
Uporabniki, ki so igrali Siddharta - Et tu v2, so igrali tudi sledeče pesmi od Siddharta:
Orion Lady v2, Homo Carnula v1, THOR v1, Farmer, 01 (nulaena) v2, Klinik v2
Ogromno število pesmi z akordi in tablaturami izvajalca Siddharta najdete tudi na spletni strani YourChords.com pod Siddharta Chords and Tabs.

Namig:

Po registraciji (ki vam bo vzela le 10 sekund, se spomnite?) boste lahk uporabljai vaš kotiček - čisto vaš delček portala www.Glasbenik.net z vašimi pesmaricami itd.

Pokažite svoj talent!

Tu lahko objavite vaš video ali audio posnetek! Hočem vedeti več ...
Kje lahko najdemo vaš nastop? Hočem vedeti več ...
Vaš komentar:
Prosimo, prijavite se in objavite vaš nastop.
cookieassistant.com