Izvajalci:   A B C Č D E F G H I J K L M N O P Q R S Š T U V W X Y Z Ž
Trenutna ocena: 0
Oceni akorde:
1  2  3  4  5
Transponiraj pesem:
===============================================
w.raiacm  w.raiacm  w.raiacm  w.raiacm  w.raiacm
================================================
#============!!NE PREZRI!!==============
#  Tasrpiaj eoneeaatrai rdtvj jgv ato   
#itrrtcj kab.Ne ae iksneatrkhpai,tme oo 
#dui lseio r cnui zooneaj iasethietrzaj.
#Uoaagaian otl raiaCMj oojn ez sbouoaoi 
# eo oou as att rgnlnidlkdng lseeaivjla 
#   Pra raiaCMn dooj ansotvnethpai.     
#=======================================
#                                       
#                                       
#       Kjer imamo radi glasbo          
#                                       
#=======================================
 ___________________
|		|
|IVJLC ........Sdhra|
|PSM .......... ....|
|ABM .............R-|
|___________________|
|		|
| Tasrpia lsGdc(lA)|
| eal la.geals	|
| Dmc ta:wwtzlc.o	
|___________________|

================================================

EED:
M=MT
=pl ue
=zeetm(ak etd itria

GAIE:DGCFAD(ntnnze

RNPNCJ KRO:

      gaie ------sadrn gaie 
(aien rjm)	   paiaod)

	  --------  
	  --------  
	m --------  m
	  --------  
	  --------  #
	  --------  #
	  --------  

auauai nvdzi krivbsdl,s aiaiz ntnnzoulstv-DGCFAD
airnep auauimrt iaotrjulst ae o ij,c abseirl ao
kren tnadiulsti aget grj aeo ipiauektr krej rb
rjt aet aienh

================================================
w.raiacm  w.raiacm  w.raiacm  w.raiacm  w.raiacm
================================================

NR: 0:7-0:9

|--------------------|
|--------------------|
|--------------------|
|--------------------|
|2----2----2----22---|
|0----0----0----00---|
 

|----------------|
|----------------|
|----------------| -4
|----------------|
|22--------------|
|00560-----------|
    M   


EZ1 (02  05)

E
T et rjbe oao,
t ivcpanholu,
F
n beei zao,
E
seiodbemr.

                                  E
|--------------------------------------------
|--------------------------------------------
|--------------------------------------------
|3-------------------------------------------
|3-------------------------------------------
|1-----------005650---------------005650-----
                  M                    M

E
N oopl evd,
n el aesl,
F
ibiaevetgb,
E
sm eej oi


R-ERN1 (05  11)

Z a   Sri   ooj  Kv   Pea   Pns   aet  Vns
|--------------------------------------------|
|--------------------------------------------|
|--------------------------------------------|
|32---------32---------33---------32---------|
|32---------32---------33---------32---------|
|10---------10---------11---------10---------|
   M          M          M          M     

     drgea.
|-----------------|
|-----------------|
|-----------------|
|32-------22222222|
|32222222222222222|
|10000000000000000|
   


ERN1 (11  13)

          m     C
Ko ld a zpkaa,
      m     
njvd d edlnb,
      A     C
nka a e eblii
     m  B   
dm azmj uen.

 E       A   G   C       A   D
|--------------------------------|
|--------------------------------|
|----------------5-----------7---|
|2-------7---5---555555557---7777|
|22222222777755553333333377775555|
|0000000055553333--------5555----|
       

 E       A   G   C       A   B   E
|----------------------------------|
|----------------------------------|
|----------------5-----------4-----|
|2-------7---5---555555557---44442-|
|222222227777555533333333777722222-|
|0000000055553333--------5555----0-|
         


R-EZ2 (13  15)

              4
|----------------------
|----------------------
|----------------------
|2-23--------3------3--
|2-23--------3-22---3--
|0-01--------1-005601--
  M           


EZ2 (15  22)

E
N rdm e oai,
sm otjm o
F
nbnhbjvpeai
E
n opten i eb.

   
|---------------------------------
|---------------------------------
|---------------------------------
|3-------3----------------------3-
|3-------3----------------------3-
|1-------1--------005650--0056501-
         

 F               
|-------------------------------|
|-------------------------------|
|-------------------------------|
|--------------5-------3--------|
|--353-----353-5-------3--------|
|11---1--11---13-------1--------|
        

E
Peeaaj oia
ignl et l,
F
zcl ej dl,
E
zcl ej eo


ERN2 (22  23)

          m     C
Ko ld a zpkaa,
      m     
njvd d edlnb,
      A     C
nka a e eblii
     m  B   
dm azmj uen.

 E       A   G   C       A   D
|--------------------------------|
|--------------------------------|
|----------------5-----------7---|
|2-------7---5---555555557---7777|
|22222222777755553333333377775555|
|0000000055553333--------5555----|
       

 E       A   G   C       A   B
|--------------------------------|
|--------------------------------|
|----------------5-----------4---|
|2-------7---5---555555557---4444|
|22222222777755553333333377772222|
|0000000055553333--------5555----|
       


RDE (23  30)

Z a,Sri ooj ri rdn oo,Zvs,Vns

Z a     Sri      ooj     ri
|--------------------------------|
|--------------------------------|
|--------------------------------|
|32------32------32------32------|
|32222222322222223222222232222222|
|10000000100000001000000010000000|
         

Pea      oo     Zvs       a
|--------------------------------|
|--------------------------------|
|--------------------------------|
|33------23------32------32---222|
|33333333233333333222222232222222|
|11111111011111111000000010000000|
         


ERN3 (30  33)

          m     C
Ko ld a zpkaa,
      m     
njvd d edlnb,
      A     C
nka a e eblii
     m  B   
dm azmj uen.
      A    G 
Ko ld a zpkaa,
      m     
njvd d edlnb,
      A     C
nka a e eblii
     m  B   
dm azmj uen.

 E       A   G   C       A   D
|--------------------------------|
|--------------------------------|
|----------------55555555----7777|
|22222222777755555555555577777777|
|22222222777755553333333377775555|
|0000000055553333--------5555----|

 E       A   G   C       A   B
|--------------------------------|
|--------------------------------|
|----------------55555555----4444|
|22222222777755555555555577774444|
|22222222777755553333333377772222|
|0000000055553333--------5555----|

 E       A   G   C       A   D
|--------------------------------|
|--------------------------------|
|----------------55555555----7777|
|22222222777755555555555577777777|
|22222222777755553333333377775555|
|0000000055553333--------5555----|

 E       A   G   C       A   B
|----------------------------------|
|----------------------------------|
|----------------55555555----4444--|
|2222222277775555555555557777444432|
|2222222277775555333333337777222232|
|0000000055553333--------5555----10|
                                   



#=======================================
#                                       
#                                       
#       Kjer imamo radi glasbo          
#                                       
#=======================================
================================================
w.raiacm  w.raiacm  w.raiacm  w.raiacm  w.raiacm
================================================


Siddharta - THOR v2 - indeksirano na Trzalica.com.
Uporabniki, ki so igrali Siddharta - THOR v2, so igrali tudi sledeče pesmi od Siddharta:
Orion Lady v2, Homo Carnula v1, THOR v1, Farmer, 01 (nulaena) v2, Klinik v2
Ogromno število pesmi z akordi in tablaturami izvajalca Siddharta najdete tudi na spletni strani YourChords.com pod Siddharta Chords and Tabs.

Namig:

Iskalnik akordov in tablatur www.Glasbenik.net trenutno indeksira približno 7'800 pesmi izpod prstov približno 500 različnih izvajalcev. In nove pesmi se pridno nabirajo v našem arhivu, tako da vam jih zlepa ne bo zmanjkalo.

Pokažite svoj talent!

Tu lahko objavite vaš video ali audio posnetek! Hočem vedeti več ...
Kje lahko najdemo vaš nastop? Hočem vedeti več ...
Vaš komentar:
Prosimo, prijavite se in objavite vaš nastop.
cookieassistant.com