Izvajalci:   A B C Č D E F G H I J K L M N O P Q R S Š T U V W X Y Z Ž
Trenutna ocena: 0
Oceni akorde:
1  2  3  4  5
Transponiraj pesem:
===============================================
w.raiacm  w.raiacm  w.raiacm  w.raiacm  w.raiacm
================================================
#============!!NE PREZRI!!==============
#  Tasrpiaj eoneeaatrai rdtvj jgv ato   
#itrrtcj kab.Ne ae iksneatrkhpai,tme oo 
#dui lseio r cnui zooneaj iasethietrzaj.
#Uoaagaian otl raiaCMj oojn ez sbouoaoi 
# eo oou as att rgnlnidlkdng lseeaivjla 
#   Pra raiaCMn dooj ansotvnethpai.     
#=======================================
#                                       
#                                       
#       Kjer imamo radi glasbo          
#                                       
#=======================================
 ___________________
|		|
|IVJLC ........Sdhra|
|PSM ...........Smhe|
|ABM .............R-|
|___________________|
|		|
| Tasrpia lsGdc(lA)|
| eal la.geals	|
| Dmc ta:wwtzlc.o	
|___________________|

================================================

EED:
M=MT
=pl ue
X=mfld
/=sieu
\=siedw
~=ltrn
p=pl f
h=hme n
f  edu acltn aoppsibn
b  edu apltn,nt out ed

================================================
w.raiacm  w.raiacm  w.raiacm  w.raiacm  w.raiacm
================================================

NR  EZ1 (00  10)

 Ito A F x

 Vr :
 A                  
|-------------------------------------|
|-----------------------1--0----------|
|---2-------------------------2-------|
|0-----2--2--2-------3----------------|
|-------------------------------------|
|-------------------------------------|

   m
Be aebe rauia
   
l ldsnkmsrn
   m
toamci eej,to m
   F
s zilcs rgm
    m        
Smhe i a,smhe i a,sm
   m
T mhk arssz rg
  
pploazaa,
   m
i ase i eto
          F
za anm o to
tmvkt evskdi a.


ERN1 (10  12)
              m
N aeii tatii
       G
k aa  eaa,
   m      A    G 
i ipmt nsrsii,
     F
kdrt i

 F          C     #
|---------------------|
|---------------------|
|---------------------|
|3-3------5-5-5------6|
|3-3------5-3-3------6|
|1-1------3-3-3------4|

 F     #  G      F
|----------------------|
|----------------------|
|----------------------|
|3-3------6----5-3-----|
|3-3------6----5-3-----|
|1-1------4----3-1-----|
                       

EZ2 (12  20)
   m
Rsblj ta,
     F
blj ls
boj s a ihtl
      m
i l evcktt,
           F
sm eij l osmdua,
          A
i d eki evm
apa ib oo rki,
    
tl rhvsv peei,
  A
i egei ee
            
ksonms vjhbsd
nbnus epsi art


ERN2 (20  22)
              m
N aeii tatii
       G
k aa  eaa,
   m      A    G 
i ipmt nsrsii,
     F
kdrt i

 F          C     #
|---------------------|
|---------------------|
|---------------------|
|3-3------5-5-5------6|
|3-3------5-3-3------6|-
|1-1------3-3-3------4| \
                         _ uimdslm
 F     #  G      F       
|---------------------  /
|-----------------------
|---------------------
|3-3------6----5-3-3--
|3-3------6----5-3-3--
|1-1------4----3-1-1--


OO (22  24)
eniiii
 F                                m
|------------------------------------
|1~~~~1-------1--5-31-3-21-2-01-0----
|----------21---------------------2--
|--------1---------------------------
|------------------------------------
|------------------------------------

               G                       F
|--------------------------------------1---
|---1---31p31-61p61p61p61p61p61h61p61h6----
|1-4--1------------------------------------
|------------------------------------------
|------------------------------------------
|------------------------------------------

                  #             G    G
|1-61h61-------------------------------------------
|--------61-61-61-6r-1-61h61-31b--31-61-31-31p31~~-
|--------------------------------------------------
|--------------------------------------------------
|--------------------------------------------------
|--------------------------------------------------

     
|---------------------|
|1p31p31h31h31\0~~~~~~|
|---------------------|
|---------------------|
|---------------------|
|---------------------|


EZ3 (24  31)
   m       F        m
Nzjpiaau j av poi,
      F        G
viaj ou n ojipt)
        
vapert r,
s en euhai


RDE (31  33)
   #     #    Dm
N aeii tatii
        
k aa  eaaa,
   #      C     B #
i ipmt nsrsi
     G
kdrt i

ERN3 (33  44)
   #     #       #
N aeii tatijea
        
k aa  eaaa,
   #      C     B #
i ipmt nsrsijea
     G
kdrt i

   #
I e ok
    A
to be.
   C
i oi.
      #      F
j s orsais izi
    A     m
i ase ivcnm
      #    m
m  oesneptp,
    A
to be.
   C
i oi.
      #    F
krn ejmmd ei,
      #    #G    m
kjvevcdzsrmei vjoojm

 G       A       Dm      B
|--------------------------------|
|--------------------------------|
|--------------------------------|
|66666666888888888888888899999999|
|66666666888888886666666699999999|
|44444444666666666666666677777777|

 Gm      C    B  A       G
|--------------------------------|
|--------------------------------|
|--------66666-------------------|
|66666666666669998888888866666666|
|66666666444449998888888866666666|
|44444444-----7776666666644444444|


 G       A       C       G
|--------------------------------|
|--------------------------------|
|----------------55555555--------|
|66666666888888885555555566666666|
|66666666888888883333333366666666|
|4444444466666666--------44444444|

 F       A       C       G
|--------------------------------|
|--------------------------------|-2
|--------3333333355555555--------|
|33333333333333335555555566666666|
|33333333111111113333333366666666|
|11111111----------------44444444|

 F       A    G  G       F
|--------------------------------|
|--------------------------------|
|--------33333-------------------|
|33333333333336665-------3-------|
|33333333111116665-------3-------|
|11111111-----4443-------1-------|
                  ~~~~~~~ ~~~~~~~



#=======================================
#                                       
#                                       
#       Kjer imamo radi glasbo          
#                                       
#=======================================
================================================
w.raiacm  w.raiacm  w.raiacm  w.raiacm  w.raiacm
================================================


Siddharta - Sim Hae - indeksirano na Trzalica.com.
Uporabniki, ki so igrali Siddharta - Sim Hae, so igrali tudi sledeče pesmi od Siddharta:
Orion Lady v2, Homo Carnula v1, THOR v1, Farmer, 01 (nulaena) v2, Klinik v2
Ogromno število pesmi z akordi in tablaturami izvajalca Siddharta najdete tudi na spletni strani YourChords.com pod Siddharta Chords and Tabs.

Namig:

Iskalnik akordov in tablatur www.Glasbenik.net trenutno indeksira približno 7'800 pesmi izpod prstov približno 500 različnih izvajalcev. In nove pesmi se pridno nabirajo v našem arhivu, tako da vam jih zlepa ne bo zmanjkalo.

Pokažite svoj talent!

Tu lahko objavite vaš video ali audio posnetek! Hočem vedeti več ...
Kje lahko najdemo vaš nastop? Hočem vedeti več ...
Vaš komentar:
Prosimo, prijavite se in objavite vaš nastop.
cookieassistant.com