Izvajalci:   A B C Č D E F G H I J K L M N O P Q R S Š T U V W X Y Z Ž
_______________________________________
	|					|
	| IZVAJALEC: ................... D-fact |
	| PESEM: ............... Nič ne priznam |
	| ALBUM: .......................... Čas |
	|_______________________________________|
	|					|
	|   Tabulatura				|
	|   Transkripcija: Aleš Godec (AliAs)	|
	|   email: alias.ag@email.si		|
	|   Domača stran: www.trzalica.com	|
	|_______________________________________|


D-facti imajo dva kitarista. Eden ima Sedemstrunsko (B E A D G B E), drugi pa ima
šestrunsko  kitaro (B E A D G B  ali  B F# B E A C#). To tablaturo sem napisal za
standardno uglasitev, s tem da pritrdim kapodaster na drugo polje
(torej  F# B  E  A  C# F# - kapodaster na drugem polju)!!!


LEGENDA:
	~ = let ring - strune pusti zveneti
	M = MUTE - zaduši strune


INTRO:
Riff: 2x
F#|----------------------------------------------------------------------------------------|
C#|----------------------------------------------------------------------------------------|
A |----------------------------------------------------------------------------------------|
E |----------------------------------------------------------------------------------------|
B |-2-3--2-3--2-3-2-5-2-3-2--2-3--2-3--------2-3--2-3--2-3-2-5-2-3-2--2-3--2-5--2-3--------|
F#|----------------------------------------------------------------------------------------|
                                     M                                             M

VERSE 1:
Riff: 2x
F#|----------------------------------------------------------------------------------------|
C#|----------------------------------------------------------------------------------------|
A |----------------------------------------------------------------------------------------|
E |----------------------------------------------------------------------------------------|
B |-2-3--2-3--2-3-2-5-2-3-2--2-3--2-3--------2-3--2-3--2-3-2-5-2-3-2--2-3--2-5--2-3--------|
F#|-2-3--2-3--2-3-2-5-2-3-2--2-3--2-3--------2-3--2-3--2-3-2-5-2-3-2--2-3--2-5--2-3--------|
                                     M                                             M

Pre-refren 1:                                        veliki poznavalci...
F#|----------------------------------------------------------------|
C#|----------------------------------------------------------------|
A |----------------------------------------------------------------|
E |----------------------------------------------------------------|
B |-2-3--2-3----2-3--2-3----2-3--2-3----2-3--2-3-5--2--------------|
F#|-2-3--2-3----2-3--2-3----2-3--2-3----2-3--2-3-5--2--------------|
             M           M           M               ~~~~~~~~~~~~~~

    zanima vse...
F#|------------------------------------------------|
C#|------------------------------------------------|
A |------------------------------------------------|
E |------------------------------------------------|
B |-2-3--2-3----2-3--2-3----2-3--2-3----2-3--2-3-5-|
F#|-2-3--2-3----2-3--2-3----2-3--2-3----2-3--2-3-5-|
             M           M           M


REFREN 1:
Riff: 4x
     ni za me... ...to ne!!...
F#|--------------------------|
C#|--------------------------|
A |--------------------------|
E |-4----4----5--------------|
B |-2----4----5----3-2--3-2--|
F#|-2----2----3----3-2--3-2--|
     ~~~~ ~~~~ ~~~~   M    M


VERSE 2:
Pre-verse 2:
       dejstvo       ha  ha
F#|-----------------------------------|
C#|-----------------------------------|
A |-----------------------------------|
E |-----------------------------------|
B |-2-3--2-3--2-3-2-5-2-3-2--2-3--2-3-|
F#|--------------------------2-3--2-3-|
                                     M
verse 2 riff: 3x
F#|----------------------------------------------------------------------------------------|
C#|----------------------------------------------------------------------------------------|
A |----------------------------------------------------------------------------------------|
E |----------------------------------------------------------------------------------------|
B |-2-3--2-3--2-3-2-5-2-3-2--2-3--2-3--------2-3--2-3--2-3-2-5-2-3-2--2-3--2-5--2-3--------|
F#|-2-3--2-3--2-3-2-5-2-3-2--2-3--2-3--------2-3--2-3--2-3-2-5-2-3-2--2-3--2-5--2-3--------|
                                     M                                             M

REFREN 2:
Riff: 4x
     ni za me... ...to ne!!...
F#|--------------------------|
C#|--------------------------|
A |--------------------------|
E |-4----4----5--------------|
B |-2----4----5----3-2--3-2--|
F#|-2----2----3----3-2--3-2--|
     ~~~~ ~~~~ ~~~~   M    M


BRIDGE:
Po refrenu 2:
F#|---------------------------|
C#|---------------------------|
A |---------------------------|
E |---------------------------|
B |-2-------------------------|
F#|-2-------------------------|
     ~~~~~~~~~~~~~~~~~~~~~~~~~
     ne ne ti mi ne govori.....
F#|-----------------------------------------------------|
C#|-----------------------------------------------------|
A |-----------------------------------------------------|
E |-----------------------------------------------------|
B |-2--3--2----2--3--2----2--3--2----2--3--6--2--3-5-6--|
F#|-2--3--2----2--3--2----2--3--2----2--3--6--2--3-5-6--|
           M          M          M       

REFREN 3:
Riff: 4x
     ni za me... ...to ne!!...
F#|--------------------------|
C#|--------------------------|
A |--------------------------|
E |-4----4----5--------------|
B |-2----4----5----3-2--3-2--|
F#|-2----2----3----3-2--3-2--|
     ~~~~ ~~~~ ~~~~   M    M


OUTRO:
Riff: 4x
F#|----------------------------------------------------|
C#|----------------------------------------------------|
A |----------------------------------------------------|
E |-9--9-9--9--10-1010-10-12--12-12--12--14--14-14--14-|
B |----------------------------------------------------|
F#|-7--7-7--7--9--9-9--9--10--10-10--10--12--12-12--12-|


D-Fact - Nič ne priznam - indeksirano na Trzalica.com.
Uporabniki, ki so igrali D-Fact - Nič ne priznam, so igrali tudi sledeče pesmi od D-Fact:
Vse ti enkrat vrne se nazaj, Love song, Mavrične melodije, album ČAS, Poglej mamici v oči,
Daj dinar

Namig:

Iskalnik akordov in tablatur www.Glasbenik.net trenutno indeksira približno 7'800 pesmi izpod prstov približno 500 različnih izvajalcev. In nove pesmi se pridno nabirajo v našem arhivu, tako da vam jih zlepa ne bo zmanjkalo.

Pokažite svoj talent!

Tu lahko objavite vaš video ali audio posnetek! Hočem vedeti več ...
Kje lahko najdemo vaš nastop? Hočem vedeti več ...
Vaš komentar:
Prosimo, prijavite se in objavite vaš nastop.
cookieassistant.com