Izvajalci:   A B C Č D E F G H I J K L M N O P Q R S Š T U V W X Y Z Ž
Trenutna ocena: 0
Oceni akorde:
1  2  3  4  5
Transponiraj pesem:
_______________________________________
	|					|
	|		D-fact			|
	|					|
	|	      Album: Čas		|
	|_______________________________________|
	|					|
	|   Tabulature celega albuma		|
	|   Transkripcija: Aleš Godec (AliAs)	|
	|   email: alias.ag@email.si		|
	|   Domača stran: www.trzalica.com	|
	|_______________________________________|

Ta datoteka je zbirka vseh tabulatur iz albuma ČAS, ki sem jih uploadal na portal TRZALICA.COM.
Če imate kakršnokoli vprašanje, mnenje ali predlog glede tabulatur, me kontaktirajte na zgoraj
napisani mail, ali pa na forumu portala TRZALICA.COM

D-facti imajo dva kitarista. Eden ima sedemstrunsko kitaro (B E A D G B E), drugi pa
šeststrunsko (B E A D G B  ali  B F# B E A C#). Jaz sem tabulature za vse pesmi napisal za
standardno uglasitev - pri petih pesmih pa na drugo polje pritrdim kapodaster (F# B  E  A  C# F#)
Izjema je le pesem "prihod nove generacije" kjer potrebuješ drop-D uglasitev.

	PESMI:				UGLASITEV:
	1. Začetek			standard
	2. Blok blok (vse je defektno)	F# B  E  A  C# F#
	3. V.I.P.			standard
	4. Samsvoj			standard
	5. Čas ameriške dekadence	F# B  E  A  C# F#
	6. Prihod nove geneacije	drop-D
	7. Dovolj			standard
	8. Sredina			--------
	9. Anea				standard
       10. Budala			standard
       11. Nič ne priznam		F# B  E  A  C# F#
       12. Atman			standard
       13. Vse to ti veš		F# B  E  A  C# F#
       14. Konec			F# B  E  A  C# F#


LEGENDA:
	M = MUTE - zaduši strune
	 = palm muted - narahlo zaduši strune
	X = Z levo roko zaduši struno
	~ = let ring - strune pusti zveneti
	...= nadaljevanje pickinga (v tablaturi)
        ( )= druga kitara
	p = pul off
	h = hold on
	/ = slide up
	\ = slide down
	 = harmonični ton



******************************************************************************************************
	1. Začetek

Ob:
   00:42  00:49  00:55  01:02
e|------------------------------|
B|------------------------------|
G|------------------------------|
D|------------------------------|
A|-5------3------7------5-------|
E|-5------1------5------3-------|
    ~~~~~~~~~~~~~~~~~~~~~~~~~~~~


******************************************************************************************************
	2. Blok blok (vse je defektno)


INTRO:

F#|-----------------------------------------------------|
C#|-----------------------------------------------------|
A |-----------------------------------------------------| --4x
E |-----------------------------------------------------|
B |-2-3-2------2-3-2--2------2-3-2--2------2-3-2--2-4---|
F#|-2-3-2--7---2-3-2--2--7---2-3-2--2--7---2-3-2--2-4---|
         M         M  M         M  M         M

F#|-----------------------------------------|
C#|-----------------------------------------|
A |-----------------------------------------|
E |-----------------------------------------|
B |-4-4--5-5--4-4--5-5--4-4--5-5--4-4--5-5--|
F#|-4-4--5-5--4-4--5-5--4-4--5-5--4-4--5-5--|
                                           M

VERSE 1:

Riff 1 (s tremolo efektom):
F#|----------------|
C#|----------------|
A |----------------|
E |----------------|
B |-2--2--2--------|
F#|-2--2--2--------|
           ~~~~~~~~
Riff 2 (s tremolo efektom):
F#|-14-----------------|
C#|------14---15-------|
A |--------------------|
E |--------------------|
B |--------------------|
F#|--------------------|


Pre-refren 1:

F#|---------------------------------------14---------------------------------------------------------------|
C#|-------------------------------------------14--15-------------------------------------------------------|
A |--------------------------------------------------------------------------------------------------------|
E |--------------------------------------------------------------------------------------------------------|
B |-2----3--------------------3----2--------------------2----3--------------------3----2-------------------|
F#|-2----3--------------------3----2--------------------2----3--------------------3----2-------------------|
     ~~~~~~~~~~~~~~~~~~~~~~~~~~~~~~~~~~~~~~~~~~~~~~~~~~~~~~~~~~~~~~~~~~~~~~~~~~~~~~~~~~~~~~~~~~~~~~~~~~~~~M


REFREN 1:

F#|-----------------------------------------------------|
C#|-----------------------------------------------------|
A |-----------------------------------------------------| --4x
E |-----------------------------------------------------|
B |-2-3-2------2-3-2--2------2-3-2--2------2-3-2--2-4---|
F#|-2-3-2--7---2-3-2--2--7---2-3-2--2--7---2-3-2--2-4---|
         M         M  M         M  M         M

F#|-----------------------------------------|
C#|-----------------------------------------|
A |-----------------7-7-8-8-8-7-7-7-8-8-8-7-|
E |-----------------------------------------|
B |-3--3--3--3---3--------------------------|
F#|-----------------------------------------|


VERSE 2:

Riff 1 (s tremolo efektom):
F#|----------------|
C#|----------------|
A |----------------|
E |----------------|
B |-2--2--2--------|
F#|-2--2--2--------|
           ~~~~~~~~
Riff 2 (s tremolo efektom):
F#|-14-----------------|
C#|------14---15-------|
A |--------------------|
E |--------------------|
B |--------------------|
F#|--------------------|


BRIDGE:
    |--------------------------------------4x----------------------------------------|
F#|---------------------------------------------------------------------------------------------------------|
C#|---------------------------------------------------------------------------------------------------------|
A |-------5-5-5-5-5-5-5-7-7-7-7-7-9-9-9-9-9-9-9---10101010---9-9-9-9---10101010---9-9-----------------------|
E |-------------------------------------7-7-7-7---7-7-7-7----7-7-7-7---7-7-7-7----7-7-----------------------|
B |-5--2--3-3-3-3-3-3-3-5-5-5-5-5-7-7-7-----------------------------------------------5--2--2---------------|
F#|-5--2------------------------------------------------------------------------------5--2--2---------------|
                                               M          M         M          M             ~~~~~~~~~~~~~~~

Nato riff 1 4x (s tremolo efektom):
F#|----------------|
C#|----------------|
A |----------------|
E |----------------|
B |-2--2--2--------|
F#|-2--2--2--------|
           ~~~~~~~~


OUTRO:
    |------------------------4x------------------------|
F#|------------------------------------------------------------|
C#|------------------------------------------------------------|
A |------------------------------------------------------------|
E |------------------------------------------------------------|
B |-2-3-2------2-3-2--2------2-3-2--2------2-3-2--2-4---2-3-2--|
F#|-2-3-2--7---2-3-2--2--7---2-3-2--2--7---2-3-2--2-4---2-3-2--|
         M         M  M         M  M         M             M


******************************************************************************************************
	3. V.I.P.


*****ZAPOREDJE IGRANJA RIFFOV (Za lažjo orientacijo sem za vsak del pesmi napisal kdaj
                          se začne in konča, do sekunde natančno)
INTRO:
(00:00 - 00:27) RIFF 1 - 6x
(00:27 - 00:46) RIFF 2 - 8x

VERSE 1:
(00:47 - 01:05) RIFF 1 - 4x
(01:06 - 01:24) RIFF 3 - 4x

REFREN 1:
(01:25 - 01:33) RIFF 2 - 4x
(01:34 - 01:43) RIFF 4 - 4x

VERSE 2:
(01:43 - 01:52) RIFF 6 - 2x
(01:53 - 02:10) RIFF 3 - 4x

REFREN 2:
(02:12 - 02:30) RIFF 2 - 8x
(02:30 - 02:39) RIFF 4 - 4x
(02:40 - 02:42) RIFF 6 - 1x

OUTRO:
(02:42 - 03:01) RIFF 2 - 8x


***** RIFFI:

RIFF 1: z delay efektom
e|-17-17-17--17--17--17--17--17--16-16-16--16--16--16--16--|
B|---------------------------------------------------------|
G|---------------------------------------------------------|
D|---------------------------------------------------------|
A|---------------------------------------------------------|
E|---------------------------------------------------------|

RIFF 2:
e|------------------|
B|------------------|
G|------------------|
D|-7--7--8--8-8-8---|
A|-7--5-------------|
E|-5--5--6--6-6-6---|

RIFF 3:
e|----------------------------------|
B|----------------------------------|
G|----------------------------------|
D|----------------------------------|
A|-7-7-5-5-8-8-5-----7-7-5-5-8------|
E|-5-5-5-5-6-6-5-----5-5-5-5-6------|
                  

RIFF 4:
e|------------------|
B|------------------|
G|------------------|
D|-7-----8--7-7-7---|
A|-7--0--8--7-7-7---|
E|-5--0--6--5-5-5---|

RIFF 5:
e|----------------------------------|
B|----------------------------------|
G|----------------------------------|
D|----------------------------------|
A|-----5-5---------------5-5--------|
E|-5-5-5-5-6-6-5-----5-5-5-5-6------|
                  

RIFF 6:
e|----------------|
B|----------------|
G|----------------|
D|----------------|
A|-0--------------|
E|-0--------------|
    ~~~~~~~~~~~~~~


******************************************************************************************************
	4. Samsvoj


VERSE 1:

Riff 1: Riff 1 se ponavlja v intru in v verzih. 
e|-------------------------------------------------------------------------|
B|-------------------------------------------------------------------------|
G|-------------------------------------------------------------------------|
D|-------------------------------------------------------------------------|
A|-11h12p0h12p0h11p0h14p0h12M----------------------------------------------|
E|-------------------------------------11h12p0h14p0h12p0h16p0h12M----------|

Riff 2 (druga kitara z nekim efektom):
e|-------------------------9--------9---------------------------------------|
B|-----------------------------12------------------------------9--------9---|
G|-----------------------------------------------------------------11-------|
D|--------------------11----------------------------------------------------|
A|--------------------------------------------------------------------------|
E|--------------------------------------------------------------------------|
	
Riff 3: (po Riffu 1!!)
e|----------------------------------------------------------------------------------------------------|
B|----------------------------------------------------------------------------------------------------|
G|----------------------------------------------------------------------------------------------------|
D|----------------------------------------------------------------------------------------------------|
A|-11-11--11--11--14--12--11-------------------11-11--------11-11--11--11--14--12--11-----------------|
E|----------------------------14-12--14-12--14-----------------------------------------14--14--12-12--|


REFREN 1:

Riff 4:
        |----------7x----------|        |------> v tem delu lahko eksperimentiraš s
e|----------------------------------------------| stikalom ON/OFF, če ga imaš na kitari.
B|----------------------------------------------|
G|----------------------------------------------|
D|----------------------------------------------|
A|-4-5--5-4--4-4--4-4--4-4--4-4--4--7--5--------|
E|-4-5--5-4--4-4--4-4--4-4--4-4--4--7--5--------|
           M    M    M    M    M        ~~~~~~~~


VERSE 2: Enako kot VERSE 1!!


REFREN 2:

Riff 4 (začetek je malo drugačen, kot v prvem refrenu):
   |----------7x----------|
e|----------------------------------------------|
B|----------------------------------------------|
G|----------------------------------------------|
D|----------------------------------------------|
A|-5-4--4-4--4-4--4-4--4-4--4--7--5--------|
E|-5-4--4-4--4-4--4-4--4-4--4--7--5--------|
      M    M    M    M    M        ~~~~~~~~

Riff 5: ponovi se 4x
e|------------------------------------------------------------------------------|
B|------------------------------------------------------------------------------|
G|------------------------------------------------------------------------------|
D|-7--7-7-7-7--7-7-7--6--6-6--4--4-4-4-4--7--7-7-7-7--7-7-7--6--6-6--4----------|
A|-5--5-5-5-5--5-5-5--4--4-4--4--4-4-4-4--5--5-5-5-5--5-5-5--4--4-4--2----------|
E|-5--5-5-5-5--5-5-5--4--4-4--2--2-2-2-2--5--5-5-5-5--5-5-5--4--4-4--2----------|
                                                                      ~~~~~~~~~~

Riff 6 (Solo): (ob drugi ponovitvi Riffa 5!!)
e|----------------------------------------------------------------------------------------------------------|
B|----------------------------------------------------------------------------------------------------------|
G|----------------------------------------------------------------------------------------------------------|
D|----------------------------------------------------------------------------------------------------------|
A|-2///5-5--6-6--7-7--9-9--11-11--11-11\9--9---9/11-12-11-12---12-12-11-11---9-9-9-9--7--7-7/9-9---\\2------|
E|---------------------------------------------------------------------------------------------------2------|
                                                                                                      ~~~~~~  

OUTRO:

Riff 7 se ponavlja do konca pesmi: (z delay efektom)
e|---------------17-17-------------------------------------------17-17--------------------|
B|-15-15--14-14-----------------------------14----14----14----14--------------------------|
G|---------------------------------------14----14----14----14-----------------------------|
D|----------------------------------------------------------------------------------------|
A|----------------------------------------------------------------------------------------|
E|----------------------------------------------------------------------------------------|


******************************************************************************************************
	5. Čas ameriške dekadence


INTRO:

    vsi za enega, nobeden za nobenega...                       STOOOP!!
    |--------4x------||-------3x-------|
F#|------------------------------------------------------------------|
C#|------------------------------------------------------------------|
A |------------------------------------------------------------------|
E |------------------------------------------------------------------|
B |-4-4----4-4--------4-4-4444-4-4444444--4--4--2-4-5-4--4-2-4-5--5--|
F#|-4-4----4-4--------4-4----4-4----------4--4--2-4-5-4--4-2-4-5--5--|
       M      M          M      M

F#|----------------------------|
C#|----------------------------|
A |----------------------------| --8x
E |----------------------------|
B |-4--4--2-4-5-4--4-2-4-5--5--|
F#|-4--4--2-4-5-4--4-2-4-5--5--|


VERSE 1:

Med bushevim govorom:          |------3x------|                   |------2x------|
F#|-12-12-12-12-12-12------13---------------------------------------------------------------------------------------|
C#|-----------------------------------------------------------------------------------------------------------------|
A |-----------------------------------------------------------------------------------------------------------------|
E |--------------------------------------------6----------------------------------6---------------------------------|
B |----------------------------4-4-2-4--4-4----5--4-4-2-4--4-4----4-4-2-4--4-4----5--4-4-2-4--4-4----4-4-2-4--4-4---|
F#|--------------------------------------------4--4-4-----------------------------4--4-4----------------------------|
                     ......  M  M     M  M M           M  M M    M     M  M M           M  M M    M     M  M M

       TIIŠIINAA TIIŠIINAA!!!                       |----------6x----------|   GARANCIJA ZA BOGASTVO!!!!!
F#|-12-12-12-12-12-12------13--------------(11-11-11)--------------(11-11-11)--------------------------|
C#|----------------------------------------------------------------------------------------------------|
A |----------------------------------------------------------------------------------------------------|
E |-------------------------------------------------6--------------------------------------------------|
B |----------------------------4-4-2-4--4-4---------5--4-4-2-4--4-4---------4--4--2-4-5-4--4-2-4-5--5--|
F#|----------------------------4-4-2-4--4-4---------4--4-4-2-4--4-4---------4--4--2-4-5-4--4-2-4-5--5--|
                     ......                            

REFREN 1:

    |------------8x-----------|
F#|-------------------------------------|
C#|-------------------------------------|
A |-------------------------------------|
E |-------------------------------------|
B |-4--4--2-4-5-4--4-2-4-5--5--5--------|
F#|-4--4--2-4-5-4--4-2-4-5--5--5--------|
                                ~~~~~~~~

VERSE 2:
                  |------7x------|      ali oni ali mi...         thank you...
F#|------------------------------------------------------------------|
C#|------------------------------------------------------------------|
A |-----66667777---------66667777------------------------------------|
E |---------------6--------------------------------------------------|
B |-4-4-44445555--5--4-4-44445555----4-4--4-4-4----4-4--4--4--4-4----|
F#|-4-4-----------4--4-4-------------4-4--4-4-4----4-4--4--4--4-4----|
              M              M    M M  M M M    M M  M  M    M


REFREN 3:

F#|----------------------------|
C#|----------------------------|
A |----------------------------| --8x
E |----------------------------|
B |-4--4--2-4-5-4--4-2-4-5--5--|
F#|-4--4--2-4-5-4--4-2-4-5--5--|

  čas je ameriške dekadence...
    |------------7x-----------|
F#|--------------------------------------------|
C#|--------------------------------------------|
A |--------------------------------------------|
E |--------------------------------------------|
B |-4--4--2-4-5-4--4-2-4-5--5--4-4--4--4--4-4--|
F#|-4--4--2-4-5-4--4-2-4-5--5--4-4--4--4--4-4--|
     M                    M     M M  M  M    M


******************************************************************************************************
	6. Prihod nove geneacije


Riff 1: se ponavlja v verzih
e|-----------------------------------|
B|-----------------------------------|
G|-----------------------------------|
D|-----------------------------------|
A|-0--0------------------------------|
D|---------3--3----6--6--------0--0--|

Riff 2: se ponavlja v refrenih (tudi v outru)
e|------------------------------|
B|------------------------------|
G|-------------7~~~~~~~~~~~-----|
D|-------------6~~~~~~~~~~~-----|
A|-5--3-5-5--------3-5-5---3--0-|
D|------------------------------|
         M            M

Prijem za Riff 2:

Z mezincem pritisni 3. struno na 7. polju (G 7), s prstancem 4. struno na 6. polju (D 6)
in to tudi neprestano drži.
S kazalcem pritiskaj 5. struno na 3. polju (A 3) in še s sredincem 5. struno
na 5. polju (A 5) - seveda tako, kot prikazuje tablatura.

Tisti del, ki ga držiš z mezincem in prstancem, v pesmi igra en kitarist (desni zvočnik),
del, ki ga pa igraš s kazalcem in sredincem na struni A, pa igra drugi kitarist (levi zvočnik).


******************************************************************************************************
	7. Dovolj


INTRO:
   Dooovooolj!!!!
e|-----------------------------------------------------------------------------------------------------------------|
B|-----------------------------------------------------------------------------------------------------------------|
G|-----------------------------------------------------------------------------------------------------------------|
D|-4-4---4-4-4----4-4---4-4-4----4-4-4---4-4-4----4-4---4-4-4----4-7-7---7-7-7----7-7---7-7-7--5-5--5--5-5-5--5-5--|
A|-2-2---2-2-2----2-2---2-2-2----2-4-4---4-4-4----4-4---4-4-4----4-7-7---7-7-7----7-7---7-7-7--5-5--5--5-5-5--5-5--|
E|-2-2---2-2-2----2-2---2-2-2----2-2-2---2-2-2----2-2---2-2-2----2-5-5---5-5-5----5-5---5-5-5--3-3--3--3-3-3--3-3--|
                                                                                                  M       M    M

VERSE 1:

riff 1: s tremolo efektom
e|-3--2-------|
B|------------|
G|------------| -8x
D|------------|
A|------------|
E|------------|

riff 2:
   |--------2x-------|       |------------3x------------|
e|--------------------------------------------------------------------------|
B|--------------------------------------------------------------------------|
G|--------------------------------------------------------------------------|
D|--------------0----------------0------0------0--------------0------0------|
A|---4---4----4----------------4------4------4------4---4---4------4--------|
E|-3---0---2-------------0---2------3------0------3---0---2------3----------|


REFREN 1:

e|----------------------------------------------------------------------------------------------------------------------------|
B|----------------------------------------------------------------------------------------------------------------------------|
G|----------------------------------------------------------------------------------------------------------------------------|
D|------4-4---4-4-4----4-4---4-4-4----4-4-4---4-4-4----4-4---4-4-4----4-7-7---7-7-7----7-7---7-7-7--5-5-5-5---5-5-5-5---5-5-5-|
A|-2-2--2-2---2-2-2----2-2---2-2-2----2-4-4---4-4-4----4-4---4-4-4----4-7-7---7-7-7----7-7---7-7-7--5-5-5-5---5-5-5-5---5-5-5-|
E|-2-2--2-2---2-2-2----2-2---2-2-2----2-2-2---2-2-2----2-2---2-2-2----2-5-5---5-5-5----5-5---5-5-5--3-3-3-3---3-3-3-3---3-3-3-|
                                                                                                         M         M

e|------------------------------------------------------------------------------------------------------------------------|
B|------------------------------------------------------------------------------------------------------------------------|
G|------------------------------------------------------------------------------------------------------------------------|
D|-4-4---4-4-4----4-4---4-4-4----4-4-4---4-4-4----4-4---4-4-4----4-7-7---7-7-7----7-7---7-7-7--5-5--5--5-5-5--5-5---------|
A|-2-2---2-2-2----2-2---2-2-2----2-4-4---4-4-4----4-4---4-4-4----4-7-7---7-7-7----7-7---7-7-7--5-5--5--5-5-5--5-5---------|
E|-2-2---2-2-2----2-2---2-2-2----2-2-2---2-2-2----2-2---2-2-2----2-5-5---5-5-5----5-5---5-5-5--3-3--3--3-3-3--3-3--2------|
                                                                                                  M       M      ~~~~~~

VERSE 2:

           |--------3x-------||------------3x------------|
e|-----------------------------------------------------------------------------------|
B|-----------------------------------------------------------------------------------|
G|-----------------------------------------------------------------------------------|
D|-----0----------------0-----------------0------0------0--------------0------0------|
A|---4-------4---4----4---------4---4---4------4------4------4---4---4------4--------|
E|-2-------3---0---2----------3---0---2------3------0------3---0---2------3----------|


REFREN 2:
           |----od tu 2x
e|--------------------------------------------------------------------------------------------------------------------------------|
B|--------------------------------------------------------------------------------------------------------------------------------|
G|--------------------------------------------------------------------------------------------------------------------------------|
D|----------4-4---4-4-4----4-4---4-4-4----4-4-4---4-4-4----4-4---4-4-4----4-7-7---7-7-7----7-7---7-7-7--5-5-5-5---5-5-5-5---5-5-5-|
A|-2-2-2-2--2-2---2-2-2----2-2---2-2-2----2-4-4---4-4-4----4-4---4-4-4----4-7-7---7-7-7----7-7---7-7-7--5-5-5-5---5-5-5-5---5-5-5-| --|
E|-2-2-2-2--2-2---2-2-2----2-2---2-2-2----2-2-2---2-2-2----2-2---2-2-2----2-5-5---5-5-5----5-5---5-5-5--3-3-3-3---3-3-3-3---3-3-3-|   |
                                                                                                           M         M            |
                                                                                                                                      |--2X
e|----------------------------------------------------------------------------------------------------------------|                   |
B|----------------------------------------------------------------------------------------------------------------| ------------------|
G|----------------------------------------------------------------------------------------------------------------|
D|-4-4---4-4-4----4-4---4-4-4----4-4-4---4-4-4----4-4---4-4-4----4-7-7---7-7-7----7-7---7-7-7--5-5--5--5-5-5--5-5-|
A|-2-2---2-2-2----2-2---2-2-2----2-4-4---4-4-4----4-4---4-4-4----4-7-7---7-7-7----7-7---7-7-7--5-5--5--5-5-5--5-5-|
E|-2-2---2-2-2----2-2---2-2-2----2-2-2---2-2-2----2-2---2-2-2----2-5-5---5-5-5----5-5---5-5-5--3-3--3--3-3-3--3-3-|
                                                                                                  M       M 
SOLO:
e|------------------------------------------------------------------------------------------------|
B|------------------------------------------------------------------------------------------------|
G|------------------------------------------------------------------------------------------------|
D|------------------------------------------------------------------------------------------------|
A|------------------------------------------------------------------------------------------------|
E|-10--10-10-7--7-7-7--9--9-9-9--9-9-9--9-9-9--9--9-9-9--9-9-9--9-9-9--10--10-10-10--10-10-10--10-|

e|----------------------------------------------------------------------------------------------------------|
B|----------------------------------------------------------------------------------------------------------|
G|----------------------------------------------------------------------------------------------------------|
D|----------------------------------------------------------------------------------------------------------|
A|----------------------------------------------------------------------------------------------------------|
E|-10--10-10-7--7-7-7--12--12-12-12--12-12-12--12-12-12--9--9-9-9--9-9-9--9-9-9--10--10-10-10--10-10-10--10-|


BRIDGE:
   takoj po koncu sola:
e|-----------------|
B|-----------------|
G|-----------------|
D|-----------------|
A|-2---------------|
E|-2---------------|
    ~~~~~~~~~~~~~~~

   mi ne gre....             JUUUMP!!!!!
   |-----------4x----------| |----------8x-----------|
e|-----------------------------------------------------|
B|-----------------------------------------------------|
G|-----------------------------------------------------|
D|-----------------------------------------------------|
A|-3-2--2--2-3-2--2--2-3-2---3-2--2--2-3-2--2--2-3-2---|
E|---------------------------3-2--2--2-3-2--2--2-3-2---|
                          M                         M

REFREN 3:

e|------------------------------------------------------------------------------------------------------------------------------|
B|------------------------------------------------------------------------------------------------------------------------------|
G|------------------------------------------------------------------------------------------------------------------------------|
D|--------4-4---4-4-4----4-4---4-4-4----4-4-4---4-4-4----4-4---4-4-4----4-7-7---7-7-7----7-7---7-7-7--5-5-5-5---5-5-5-5---5-5-5-|
A|-22-22--2-2---2-2-2----2-2---2-2-2----2-4-4---4-4-4----4-4---4-4-4----4-7-7---7-7-7----7-7---7-7-7--5-5-5-5---5-5-5-5---5-5-5-|
E|-22-22--2-2---2-2-2----2-2---2-2-2----2-2-2---2-2-2----2-2---2-2-2----2-5-5---5-5-5----5-5---5-5-5--3-3-3-3---3-3-3-3---3-3-3-|
     M  M                                                                                                    M         M

e|----------------------------------------------------------------------------------------------------------------|
B|----------------------------------------------------------------------------------------------------------------|
G|----------------------------------------------------------------------------------------------------------------|
D|-4-4---4-4-4----4-4---4-4-4----4-4-4---4-4-4----4-4---4-4-4----4-7-7---7-7-7----7-7---7-7-7--5-5--5--5-5-5--5-5-|
A|-2-2---2-2-2----2-2---2-2-2----2-4-4---4-4-4----4-4---4-4-4----4-7-7---7-7-7----7-7---7-7-7--5-5--5--5-5-5--5-5-|
E|-2-2---2-2-2----2-2---2-2-2----2-2-2---2-2-2----2-2---2-2-2----2-5-5---5-5-5----5-5---5-5-5--3-3--3--3-3-3--3-3-|
                                                                                                  M       M 

e|-----------------------------------------------------------------------------------------------------------------------|
B|-----------------------------------------------------------------------------------------------------------------------|
G|-----------------------------------------------------------------------------------------------------------------------|
D|-4-4---4-4-4----4-4---4-4-4----4-4-4---4-4-4----4-4---4-4-4----4-7-7---7-7-7----7-7---7-7-7--5-5-5-5---5-5-5-5---5-5-5-|
A|-2-2---2-2-2----2-2---2-2-2----2-4-4---4-4-4----4-4---4-4-4----4-7-7---7-7-7----7-7---7-7-7--5-5-5-5---5-5-5-5---5-5-5-|
E|-2-2---2-2-2----2-2---2-2-2----2-2-2---2-2-2----2-2---2-2-2----2-5-5---5-5-5----5-5---5-5-5--3-3-3-3---3-3-3-3---3-3-3-|
                                                                                                       M         M
                                                                                               |--------3x------|
e|------------------------------------------------------------------------------------------------------------------------|
B|------------------------------------------------------------------------------------------------------------------------|
G|------------------------------------------------------------------------------------------------------------------------|
D|-4-4---4-4-4----4-4---4-4-4----4-4-4---4-4-4----4-4---4-4-4----4-7-7---7-7-7----7-7---7-7-7--5-5--5--5-5-5--5-5---------|
A|-2-2---2-2-2----2-2---2-2-2----2-4-4---4-4-4----4-4---4-4-4----4-7-7---7-7-7----7-7---7-7-7--5-5--5--5-5-5--5-5---------|
E|-2-2---2-2-2----2-2---2-2-2----2-2-2---2-2-2----2-2---2-2-2----2-5-5---5-5-5----5-5---5-5-5--3-3--3--3-3-3--3-3-2-------|
                                                                                                  M       M     ~~~~~~~

******************************************************************************************************
	9. Anea

Za lažjo orientacijo sem za vsak del pesmi napisal kdaj se začne in konča, do sekunde natančno


INTRO:  (00:00 - 00:18)
e|------------------------------------|
B|-2--------2--------2--------2-------|
G|------------------------------------|
D|------4--------4--------4--------4--|
A|------------------------------------|
E|-2--------2--------2--------2-------|
    ~~~~~~~~~~~~~~~~~~~~~~~~~~~~~~~~~~


VERSE 1:  (00:18 - 01:14)
        |---------------------4x----------------------|
e|----------------------------------------------------|
B|----------------------------------------------------|
G|----------------------------------------------------|
D|------4--4----4--4----5--5----5--5--4-4-4-5--4-5----|
A|-5-7--2--2----2--2----3--3----3--3--2-2-2-3--2-3-5--|
E|-5-7--2--2----2--2----3--3----3--3--2-2-2-3--2-3-5--|
             M       M       M

e|--------------------------------|
B|--------------------------------|
G|--------------------------------|
D|-----------4--------------4-----|
A|-4----4---------4----4----------|
E|-2----2---------2----2----------|
    ~~~~~~~~~~~~~~~~~~~~~~~~~~~~~~


REFREN 1:  (01:15 - 01:32)
   |----------3x----------|               |----------3x----------|
e|-----------------------------------------------------------------------|
B|-----------------------------------------------------------------------|
G|-----------------------------------------------------------------------|
D|-4--4---------4--4--5-5--7--------------4--4---------4--4--5-5--7------|
A|-4--4--4-4--4-4--4--5-5--5------2-2-2-2-4--4--4-4--4-4--4--5-5--5------|
E|-2--2--2-2--2-2--2--3-3--5------0-0-0-0-2--2--2-2--2-2--2--3-3--5------|
                         ~~~~~~                          ~~~~~~


VERSE 2:  (01:33 - 02:01)
        |---------------------3x----------------------|
e|----------------------------------------------------|
B|----------------------------------------------------|
G|----------------------------------------------------|
D|------4--4----4--4----5--5----5--5--4-4-4-5--4-5----|
A|-5-7--2--2----2--2----3--3----3--3--2-2-2-3--2-3-5--|
E|-5-7--2--2----2--2----3--3----3--3--2-2-2-3--2-3-5--|
             M       M       M


BRIDGE:  (02:02 - 02:31)
                               |------------4x------------|
e|--------------------------------------------------------------------------------|
B|--------------------------------------------------------------------------------|
G|--------------------------------------------------------------------------------|
D|----4------4------4------4------4------4------4------4------4------4---4--------|
A|-4------4------4------5------4------4------4------5------4------4------2--------|
E|-2~~~~~~~~~~~~~~~~~~~~-------------------------------------------------2--------|
                                                                          ~~~~~~~~

REFREN 2:  (02:32 - 03:12)

(02:32 - 02:51)
   |----------3x----------|
e|-----------------------------------------------------------------------------------------------------------------------|
B|-----------------------------------------------------------------------------------------------------------------------|
G|-----------------------------------------------------------------------------------------------------------------------|
D|-4--4---------4--4--5-5--7--------------4--4---------4--4--5-5--4--4----4--5-5--4--4---------4--4--5-5--7--------------|
A|-4--4--4-4--4-4--4--5-5--5------2-2-2-2-4--4--4-4--4-4--4--5-5--4--4----4--5-5--4--4--4-4--4-4--4--5-5--5------2-2-2-2-|
E|-2--2--2-2--2-2--2--3-3--5------0-0-0-0-2--2--2-2--2-2--2--3-3--2--2----2--3-3--2--2--2-2--2-2--2--3-3--5------0-0-0-0-|
                         ~~~~~~                              M                                ~~~~~~   

(02:51 - 03:12)
   |----------3x----------|               |------3x------|
e|--------------------------------------------------------------------------|
B|--------------------------------------------------------------------------|
G|--------------------------------------------------------------------------|
D|-4--4---------4--4--5-5--7--------------4--4----4--5-5--7-----------4--4--|
A|-4--4--4-4--4-4--4--5-5--5------2-2-2-2-4--4----4--5-5--5------5-7--2--2--|
E|-2--2--2-2--2-2--2--3-3--5------0-0-0-0-2--2----2--3-3--5------5-7--2--2--|
                         ~~~~~~         M           ~~~~~~          M


******************************************************************************************************
       10. Budala


INTRO:
e|------------------------|
B|------------------------|
G|------------------------| --4x
D|-----3----------4-------|
A|---2----------2---------|
E|-1----------2-----------|
    ~~~~~~~~~~     M

e|-----------------|
B|-----------------|
G|-----------------| --4x
D|-3--4-4---5--4---|
A|-2--2-2---3--2---|
E|-1--2-2---3--2---|

e|------------------------------|
B|------------------------------|
G|------------------------------|
D|-4--4----------4--4-----------|
A|-2--2----------2--2-----------|
E|-2--2----------2--2-----------|
       ~~~~~~~~~~    ~~~~~~~~~~~

VERSE 1:

e|------------------------|
B|------------------------|
G|------------------------| --6x
D|---0--0----0------0-----|
A|------------------------|
E|------------------------|

REFREN 1:

   buudaalaaa!!!
e|-----------------|
B|-----------------|
G|-----------------| 8x
D|-3--4-4---5--4---|
A|-2--2-2---3--2---|
E|-1--2-2---3--2---|

   |----------3x----------|
e|-------------------------------------------|
B|-------------------------------------------|
G|-------------------------------------------|
D|-----3----------4-----------3--------------|
A|---2----------2-----------2----------------|
E|-1----------2-----------1----------2-------|
    ~~~~~~~~~~     M       ~~~~~~~~~~  M

VERSE 2:

e|------------------------|
B|------------------------|
G|------------------------| --8x
D|---0--0----0------0-----|
A|------------------------|
E|------------------------|

REFREN 2:

   buudaalaaa!!!
e|-----------------|
B|-----------------|
G|-----------------| 8x
D|-3--4-4---5--4---|
A|-2--2-2---3--2---|
E|-1--2-2---3--2---|

OUTRO:

e|----------------------|
B|----------------------|
G|----------------------|
D|----------------------|
A|-4-4--4-5-4--4-4------|
E|----------------------|
                  ~~~~~~

   |-----3x-----|
e|-------------------------------------|
B|-------------------------------------|
G|-------------------------------------| --2x
D|-------------------------------------|
A|-2-2--2-3-2-3----2-2--2-3-2-3-2------|
E|-2-2--2-3-2-3----2-2--2-3-2-3-2------|
               M                 ~~~~~~

e|------------------------------|
B|------------------------------|
G|------------------------------| --4x
D|-4--------5-5-5-5---5-5-5-5---|
A|-2--------3-3-3-3---3-3-3-3---|
E|-2--------3-3-3-3---3-3-3-3---|
    ~~~~~~~~       M         M


******************************************************************************************************
       11. Nič ne priznam


INTRO:
Riff: 2x
F#|----------------------------------------------------------------------------------------|
C#|----------------------------------------------------------------------------------------|
A |----------------------------------------------------------------------------------------|
E |----------------------------------------------------------------------------------------|
B |-2-3--2-3--2-3-2-5-2-3-2--2-3--2-3--------2-3--2-3--2-3-2-5-2-3-2--2-3--2-5--2-3--------|
F#|----------------------------------------------------------------------------------------|
                                     M                                             M

VERSE 1:
Riff: 2x
F#|----------------------------------------------------------------------------------------|
C#|----------------------------------------------------------------------------------------|
A |----------------------------------------------------------------------------------------|
E |----------------------------------------------------------------------------------------|
B |-2-3--2-3--2-3-2-5-2-3-2--2-3--2-3--------2-3--2-3--2-3-2-5-2-3-2--2-3--2-5--2-3--------|
F#|-2-3--2-3--2-3-2-5-2-3-2--2-3--2-3--------2-3--2-3--2-3-2-5-2-3-2--2-3--2-5--2-3--------|
                                     M                                             M

Pre-refren 1:                                        veliki poznavalci...
F#|----------------------------------------------------------------|
C#|----------------------------------------------------------------|
A |----------------------------------------------------------------|
E |----------------------------------------------------------------|
B |-2-3--2-3----2-3--2-3----2-3--2-3----2-3--2-3-5--2--------------|
F#|-2-3--2-3----2-3--2-3----2-3--2-3----2-3--2-3-5--2--------------|
             M           M           M               ~~~~~~~~~~~~~~

    zanima vse...
F#|------------------------------------------------|
C#|------------------------------------------------|
A |------------------------------------------------|
E |------------------------------------------------|
B |-2-3--2-3----2-3--2-3----2-3--2-3----2-3--2-3-5-|
F#|-2-3--2-3----2-3--2-3----2-3--2-3----2-3--2-3-5-|
             M           M           M


REFREN 1:
Riff: 4x
     ni za me... ...to ne!!...
F#|--------------------------|
C#|--------------------------|
A |--------------------------|
E |-4----4----5--------------|
B |-2----4----5----3-2--3-2--|
F#|-2----2----3----3-2--3-2--|
     ~~~~ ~~~~ ~~~~   M    M


VERSE 2:
Pre-verse 2:
       dejstvo       ha  ha
F#|-----------------------------------|
C#|-----------------------------------|
A |-----------------------------------|
E |-----------------------------------|
B |-2-3--2-3--2-3-2-5-2-3-2--2-3--2-3-|
F#|--------------------------2-3--2-3-|
                                     M
verse 2 riff: 3x
F#|----------------------------------------------------------------------------------------|
C#|----------------------------------------------------------------------------------------|
A |----------------------------------------------------------------------------------------|
E |----------------------------------------------------------------------------------------|
B |-2-3--2-3--2-3-2-5-2-3-2--2-3--2-3--------2-3--2-3--2-3-2-5-2-3-2--2-3--2-5--2-3--------|
F#|-2-3--2-3--2-3-2-5-2-3-2--2-3--2-3--------2-3--2-3--2-3-2-5-2-3-2--2-3--2-5--2-3--------|
                                     M                                             M

REFREN 2:
Riff: 4x
     ni za me... ...to ne!!...
F#|--------------------------|
C#|--------------------------|
A |--------------------------|
E |-4----4----5--------------|
B |-2----4----5----3-2--3-2--|
F#|-2----2----3----3-2--3-2--|
     ~~~~ ~~~~ ~~~~   M    M


BRIDGE:
Po refrenu 2:
F#|---------------------------|
C#|---------------------------|
A |---------------------------|
E |---------------------------|
B |-2-------------------------|
F#|-2-------------------------|
     ~~~~~~~~~~~~~~~~~~~~~~~~~
     ne ne ti mi ne govori.....
F#|-----------------------------------------------------|
C#|-----------------------------------------------------|
A |-----------------------------------------------------|
E |-----------------------------------------------------|
B |-2--3--2----2--3--2----2--3--2----2--3--6--2--3-5-6--|
F#|-2--3--2----2--3--2----2--3--2----2--3--6--2--3-5-6--|
           M          M          M       

REFREN 3:
Riff: 4x
     ni za me... ...to ne!!...
F#|--------------------------|
C#|--------------------------|
A |--------------------------|
E |-4----4----5--------------|
B |-2----4----5----3-2--3-2--|
F#|-2----2----3----3-2--3-2--|
     ~~~~ ~~~~ ~~~~   M    M


OUTRO:
Riff: 4x
F#|----------------------------------------------------|
C#|----------------------------------------------------|
A |----------------------------------------------------|
E |-9--9-9--9--10-1010-10-12--12-12--12--14--14-14--14-|
B |----------------------------------------------------|
F#|-7--7-7--7--9--9-9--9--10--10-10--10--12--12-12--12-|


******************************************************************************************************
       12. Atman

Riff 1 se začne takoj ob 00:00 (še čisto potiho, nato se glasnost poveča) in se ponavlja
skozi celo pesem razen v bridgu. (S tremolo efektom)

Riff 1:
e|------------------------------------------------------------------------------------------------------|
B|------------------------------------------------------------------------------------------------------|
G|------------------------------------------------------------------------------------------------------|
D|------------------------------------------------------------------------------------------------------|
A|----9--10--9-----9-----9-----9--10--9-----7--9--7-----9--10--9-----9--10--9-----9--10--9-----7--9--7--|
E|-7------------7-----7-----7------------7-----------7------------7------------7------------7-----------|

Bass riff na kitari: (se ponavlja)
e|--------------------------------------------|
B|--------------------------------------------|
G|--------------------------------------------|
D|-4------------------------------------------|
A|-2--------------------2---------------------|
E|----------------------2---------------------|
    ~~~~~~~~~~~~~~~~~~~~ ~~~~~~~~~~~~~~~~~~~~

BRIDGE:

e|-11-9----11-9--------|
B|---------------------|
G|---------------------| --4x
D|---------------------|
A|---------------------|
E|---------------------|
       M       M

Ta del je z nekim efektom (lahko je CRY ali pa TALK)
e|------------------------------|
B|------------------------------|
G|------------------------------|
D|------------------------------|
A|-2-2-2-2-2-2------------------|
E|-2-2-2-2-2-2------------------|
              .................M


******************************************************************************************************
       13. Vse to ti veš


INTRO: 6x
F#|------------------------------------------------|
C#|---------------------------------------77777777-|
A |---------------------------------------77777777-|
E |---------------------------------------55555555-|
B |-2--2--5-2--5-2--2--5-2--5-2--2--5-2------------|
F#|------------------------------------------------|
     M       M    M       M    M       M


VERSE 1:
F#|--------------------------------------------------------------------------------------------------------------------------|
C#|---------------------7---------5------------------7---------5------------------7---------5-------------------7---------5--|
A |-------------------7---7----6-------------------7---7----6-------------------7---7----6--------------------7---7----6-----|
E |-----------------5--------4-------------------5--------4-------------------5--------4--------------------5--------4-------|
B |-2--2--2-2--2---------------------2-2--2-2----------------------2--2--2---------------------2--2--2-2---------------------|
F#|-2--2--2-2--2---------------------2-2--2-2----------------------2--2--2---------------------2--2--2-2---------------------|
                                                        M   M  M  M                        

Pre-refren 1:
    |---------3x--------|
F#|-----------------2----------------------|
C#|---------5--------------------5---------|
A |-----7--------------------7-------------|
E |-5-7---------4--------5-7---------4-----|
B |----------------------------------------|
F#|----------------------------------------|


REFREN 1:
Riff: 2x                                              vse to ti veš          vse to ti veš
F#|--------------------------------------------------2--2--2-2--2-2--2-2-2--2--2--2-2--2-2--2-2-2-|
C#|--------------------------------------------------7--7--7-7--7-7--7-7-7--7--7--7-7--7-7--7-7-7-|
A |--------------------------------------------------7--7--7-7--7-7--7-7-7--7--7--7-7--7-7--7-7-7-|
E |--------------------------------------------------5--5--5-5--5-5--5-5-5--2--2--2-2--2-2--2-2-2-|
B |-2---2-2---2-4-2---2-4-5-2---2-2---2-4-4--5-5-5-5-5--5--5-5--5-5--5-5-5--2--2--2-2--2-2--2-2-2-|
F#|-2---2-2---2-4-2---2-4-5-2---2-2---2-4-4--5-5-5-5----------------------------------------------|
                                

Pre-verse 2:
    |---------------------2x----------------------|
F#|-------------------------------------------------------------------------------------|
C#|---------------------------------------77777777--------------------------------------|
A |---------------------------------------77777777--------------------------------------|
E |---------------------------------------55555555--------------------------------------|
B |-2--2--5-2--5-2--2--5-2--5-2--2--5-2------------2--2--5-2--5-2--2--5-2--5-2--2--5-2--|
F#|-------------------------------------------------------------------------------------|
     M       M    M       M    M       M            M       M    M       M    M       M


VERSE 2:
F#|--------------------------------------------------------------------------------------------------------------------------|
C#|---------------------7---------5------------------7---------5------------------7---------5-------------------7---------5--|
A |-------------------7---7----6-------------------7---7----6-------------------7---7----6--------------------7---7----6-----|
E |-----------------5--------4-------------------5--------4-------------------5--------4--------------------5--------4-------|
B |-2--2--2-2--2---------------------2-2--2-2----------------------2--2--2---------------------2--2--2-2---------------------|
F#|-2--2--2-2--2---------------------2-2--2-2----------------------2--2--2---------------------2--2--2-2---------------------|
                                                        M   M  M  M                        


Pre-refren 2:
    |---------3x--------|
F#|-----------------2----------------------|
C#|---------5--------------------5---------|
A |-----7--------------------7-------------|
E |-5-7---------4--------5-7---------4-----|
B |----------------------------------------|
F#|----------------------------------------|


REFREN 2:
Riff: 4x                                              vse to ti veš          vse to ti veš
F#|--------------------------------------------------2--2--2-2--2-2--2-2-2--2--2--2-2--2-2--2-2-2-|
C#|--------------------------------------------------7--7--7-7--7-7--7-7-7--7--7--7-7--7-7--7-7-7-|
A |--------------------------------------------------7--7--7-7--7-7--7-7-7--7--7--7-7--7-7--7-7-7-|
E |--------------------------------------------------5--5--5-5--5-5--5-5-5--2--2--2-2--2-2--2-2-2-|
B |-2---2-2---2-4-2---2-4-5-2---2-2---2-4-4--5-5-5-5-5--5--5-5--5-5--5-5-5--2--2--2-2--2-2--2-2-2-|
F#|-2---2-2---2-4-2---2-4-5-2---2-2---2-4-4--5-5-5-5----------------------------------------------|
                                


BRIDGE:

F#|-------------------------------------------------------------------------------------|
C#|-------------------------------------------------------------------------------------|
A |-------------------------------------------------------------------------------------|
E |-4--------------------3--------------------4--------------------3-3------------------|
B |-2--------------------3--------------------2--------------------3-3------------------|
F#|-2--------------------1--------------------2--------------------1-1------------------|
     ~~~~~~~~~~~~~~~~~~~~ ~~~~~~~~~~~~~~~~~~~~ ~~~~~~~~~~~~~~~~~~~~   ~~~~~~~~~~~~~~~~~~


OUTRO:
    |----11x---|
F#|-------------------------|
C#|------------------7------|
A |------------------7------|
E |------------------5------|
B |-2--2--5-2--5-2----------|
F#|-------------------------|
             M  ~~~~~~

F#|-----------------------------------------------------|
C#|----------------------------------------------7------|
A |----------------------------------------------7------| --2x
E |----------------------------------------------5------|
B |-2--2--5-2--5-2--2--5-2--5-2--2--5-2--5-2--2---------|
F#|-----------------------------------------------------|
     M       M    M       M    M       M    M     ~~~~~~

F#|-------------------------------------------------------------------------------------------------------|
C#|----------------------------------------------7---------------------------------------------------7777-|
A |----------------------------------------------7---------------------------------------------------7777-|
E |----------------------------------------------5---------------------------------------------------5555-|
B |-2--2--5-2--5-2--2--5-2--5-2--2--5-2--5-2--2---------2--2--5-2--5-2--2--5-2--5-2--2--5-2--5-2--2-------|
F#|-2--2--5-2--5-2--2--5-2--5-2--2--5-2--5-2--2---------2--2--5-2--5-2--2--5-2--5-2--2--5-2--5-2--2-------|
                                                  ~~~~~~                                                 M


******************************************************************************************************
       14. Konec


INTRO:
Riff 1 (00:54):
    |-----------3x-----------|
F#|---------------------------------------------|
C#|---------------------------------------------|
A |---------------------------------------------| --2x
E |------------------------------------2--2--2--|
B |-2---2-3-2-2---2-2-2-2h3---3--3-3-3-5--5--5--|
F#|---------------------------3--3-3-3----------|
          X

Riff 2 (z nekim efektom) (01:12):
F#|-----------------------------------------------|
C#|-----------------------------------------------|
A |-----------------------------------------------| --2x
E |--------------------------------------2--2--2--|
B |-2--2-2-2---3-2---2-2-2--2---3--3-3-3-5--5--5--|
F#|-----------------------------3--3-3-3----------|


VERSE:

Riff 3 (01:32):
    |----------3x-----------|
F#|----------------------------------------------|
C#|----------------------------------------------|
A |----------------------------------------------| --2x
E |--------------------------2--2-2-2--7-7-7-7-7-|
B |-2--2-3-2--2--2-3-2-3--5--5--5-5-5--7-7-7-7-7-|
F#|-2--2-3-2--2--2-3-2-3--5--5--5-5-5--7-7-7-7-7-|


Riff 4 (01:51):
    |----------3x-----------|
F#|----------------------------------------------|
C#|----------------------------------------------|
A |----------------------------------------------| --2x
E |--------------------------2--2-2-2--7-7-7-7-7-|
B |-2--2-3-2--2--2-2-2-3--5--5--5-5-5--7-7-7-7-7-|
F#|-2--2-3-2--2--2-2-2-3--5--5--5-5-5--7-7-7-7-7-|


OUTRO:

Riff 6 (02:10):


    |-----------------------------------2x-----------------------------------|
F#|---------------------------------------------------------------------------------------------|
C#|---------------------------------------------------------------------------------------------|
A |---------------------------------------------------------------------------------------------|
E |-------------------------------------------------------2--2-2-2--7-7-7-7-7-------------------|
B |-2---3---2---------2---3---2---------2---3---2---------5--5-5-5--7-7-7-7-7--2----------------|
F#|-2---3---2---------2---3---2---------2---3---2---------5--5-5-5--7-7-7-7-7--2----------------|
     ~~~~~~~~~~~~~~~~~~~~~~~~~~~~~~~~~~~~~~~~~~~~~~~~~~~~~                      ~~~~~~~~~~~~~~~~


D-Fact - album ČAS - indeksirano na Trzalica.com.
Uporabniki, ki so igrali D-Fact - album ČAS, so igrali tudi sledeče pesmi od D-Fact:
Vse ti enkrat vrne se nazaj, Love song, Mavrične melodije, Poglej mamici v oči,
Daj dinar, Čas ameriške dekadence

Namig:

Iskalnik akordov in tablatur www.Glasbenik.net trenutno indeksira približno 7'800 pesmi izpod prstov približno 500 različnih izvajalcev. In nove pesmi se pridno nabirajo v našem arhivu, tako da vam jih zlepa ne bo zmanjkalo.

Pokažite svoj talent!

Tu lahko objavite vaš video ali audio posnetek! Hočem vedeti več ...
Kje lahko najdemo vaš nastop? Hočem vedeti več ...
Vaš komentar:
Prosimo, prijavite se in objavite vaš nastop.
cookieassistant.com