Izvajalci:   A B C Č D E F G H I J K L M N O P Q R S Š T U V W X Y Z Ž
Trenutna ocena: 0
Oceni akorde:
1  2  3  4  5
Transponiraj pesem:
#======================== !!! N E   P R E Z R I !!! ===========================#
#     Transkripcija je delo njenega avtorja in predstavlja njegovo lastno      #
# interpretacijo skladbe. Njen namen ni kršenje avtorskih pravic, temveč pomoč #
# drugim glasbenikom pri učenju in izpopolnjevanju kitarske tehnike ter znanja.#
# Uporaba gradiva na portalu Trzalica.com je dovoljena le za osebno uporabo in #
#  le ob pogoju, da si lastite originalen izdelek danega glasbenega izvajalca. #
#       Portal Trzalica.COM ne odgovorja za nespoštovanje teh pravil.          #
#==============================================================================#
#                                                                              #
#                    w w w . t r z a l i c a . c o m                           #
#               K j e r   i m a m o   r a d i   g l a s b o                    #
#                                                                              #
#==============================================================================#

	 Izvajalec: ..................... Siddharta
	 Skladba: ....................... Rave
	 Transkripcijo izdelal .......... jakapust@pjcomics.com
	 Domača stran transkripcije ..... www.trzalica.com

	 POSODOBIL: AliAs, 27.3.2007

================================================================================

 Siddharta - Rave

Področje označeno z [--m--] pomeni palm muting - tam z dlanjo zadušite zvok

Zgornjo struno morate uglasiti na C - za 2 tona, oz 4 poltone dol


intro:

to se  ponavja skozi celi verz:
E|---------|
B|-4-3-1-3-|
G|---------| 6x
D|---------|
A|---------|
C|---------|

E|-----------------|
B|-3-1-3-1-3-1-3-1-|
G|-----------------|
D|-----------------|
A|-----------------|
C|-----------------|

dejansko pa gre kitara med verzom tako:
verz:
E|------------------------------------------|
B|------------------------------------------|
G|--------------------------------------4-7-|
D|----1-3--5-----1-3--5-----1-3--5----5-----|
A|-3----------1----------0------------------|
C|------------------------------------------|
in to se ponavlja,

nato pa seveda refren..

ref:
(vseeno so originalno bolj močnejši akordi (nižje uglašena kitara:drop D ni dovolj)):

finis
mundi.......

   C     D     F        D#    C     D     F        G
E|-----------------------------------------------------------------|
B|-----------------------------------------------------------------|
G|-5-5-5-7-7-7-10-10-10-8-8-8-5-5-5-7-7-7-10-10-10-12-12-12--------|
D|-5-5-5-7-7-7-10-10-10-8-8-8-5-5-5-7-7-7-10-10-10-12-12-12--------|
A|-3-3-3-5-5-5-8--8--8--6-6-6-3-3-3-5-5-5-8--8--8--10-10-10--------|
C|-----------------------------------------------------------------|

(verz) (3x)

(ref)

bridge:
E|-----------------|
B|-4-4-3-3-1-1-3-3-|
G|-----------------| 6x
D|-----------------|
A|-----------------|
C|-----------------|
  [--------m-------]

E|---------|
B|-3-3-1-1-|
G|---------| 4x
D|---------|
A|---------|
C|---------|
  [---m----]

E|-----------------|
B|-4-4-3-3-1-1-3-3-|
G|-----------------| 6x
D|-----------------|
A|-----------------|
C|-----------------|
   [------m---]

E|---------|
B|-3-3-1-1-|
G|---------| 4x
D|---------|
A|---------|
C|---------|

E|-----------------|
B|-----------------|
G|-----------------| 6x
D|-----------------|
A|-----------------|
C|-3-3-2-2-0-0-2-2-|

E|---------|
B|---------|
G|---------| 4x
D|---------|
A|---------|
C|-2-2-0-0-|

E|-----------------------------------------------------------------|
B|-----------------------------------------------------------------|
G|-----------------------------------------------------------------|
D|-----------------------------------------------------------------|
A|-----------------------------------------------------------------|
C|-3-3-2-2-0-0-2-2-3-3-2-2-0-0-3-3-5-5-3-3-2-2-3-3-5-5-3-3-2-2-3-3-|

E|-----------------------------------------------------------------|
B|-----------------------------------------------------------------|
G|-----------------------------------------------------------------|
D|-----------------------------------------------------------------|
A|-----------------------------------------------------------------|
C|-7-7-5-5-3-3-5-5-7-7-5-5-3-3-5-5-7-7-2-2-7-7-2-2-7-7-5-5-3-3-2-2-|

(ref)(3x)



jakapust@pjcomics.com


Siddharta - Rave v1 - indeksirano na Trzalica.com.
Uporabniki, ki so igrali Siddharta - Rave v1, so igrali tudi sledeče pesmi od Siddharta:
Orion Lady v2, Homo Carnula v1, THOR v1, Farmer, 01 (nulaena) v2, Klinik v2
Ogromno število pesmi z akordi in tablaturami izvajalca Siddharta najdete tudi na spletni strani YourChords.com pod Siddharta Chords and Tabs.

Namig:

Če si vzamete 10 sekund za registracijo, boste lahko komentirali ter ocenjevali vse akorde in tablature. Prav tako boste lahko komentirali in ocenjevali video posnetke drugih kitaristov - in seveda boste tudi sami lahko objavili video posnetek, kako zaigrate vašo najljubšo pesem.
Kliknite tukaj in se nam pridružite!

Pokažite svoj talent!

Tu lahko objavite vaš video ali audio posnetek! Hočem vedeti več ...
Kje lahko najdemo vaš nastop? Hočem vedeti več ...
Vaš komentar:
Prosimo, prijavite se in objavite vaš nastop.
cookieassistant.com