Izvajalci:   A B C Č D E F G H I J K L M N O P Q R S Š T U V W X Y Z Ž
_______________________________________
	|					|
	| IZVAJALEC: ................... D-fact |
	| PESEM: .. Blok blok (vse je defektno) |
	| ALBUM: .......................... Čas |
	|_______________________________________|
	|					|
	|   Tabulatura				|
	|   Transkripcija: Aleš Godec (AliAs)	|
	|   email: alias.ag@email.si		|
	|   Domača stran: www.trzalica.com	|
	|_______________________________________|

D-facti imajo dva kitarista. Eden ima Sedemstrunsko (B E A D G B E), drugi pa ima
šestrunsko  kitaro (B E A D G B  ali  B F# B E A C#). To tablaturo sem napisal za
standardno uglasitev, s tem da pritrdim kapodaster na drugo polje
(torej  F# B  E  A  C# F# - kapodaster na drugem polju)!!!

LEGENDA:
	 = palm muted - narahlo zaduši strune
	~ = let ring - strune pusti zveneti
	M = MUTE - zaduši strune
	 = harmonični ton

INTRO:

F#|-----------------------------------------------------|
C#|-----------------------------------------------------|
A |-----------------------------------------------------| --4x
E |-----------------------------------------------------|
B |-2-3-2------2-3-2--2------2-3-2--2------2-3-2--2-4---|
F#|-2-3-2--7---2-3-2--2--7---2-3-2--2--7---2-3-2--2-4---|
         M         M  M         M  M         M

F#|-----------------------------------------|
C#|-----------------------------------------|
A |-----------------------------------------|
E |-----------------------------------------|
B |-4-4--5-5--4-4--5-5--4-4--5-5--4-4--5-5--|
F#|-4-4--5-5--4-4--5-5--4-4--5-5--4-4--5-5--|
                                           M

VERSE 1:

Riff 1 (s tremolo efektom):
F#|----------------|
C#|----------------|
A |----------------|
E |----------------|
B |-2--2--2--------|
F#|-2--2--2--------|
           ~~~~~~~~
Riff 2 (s tremolo efektom):
F#|-14-----------------|
C#|------14---15-------|
A |--------------------|
E |--------------------|
B |--------------------|
F#|--------------------|


Pre-refren 1:

F#|---------------------------------------14---------------------------------------------------------------|
C#|-------------------------------------------14--15-------------------------------------------------------|
A |--------------------------------------------------------------------------------------------------------|
E |--------------------------------------------------------------------------------------------------------|
B |-2----3--------------------3----2--------------------2----3--------------------3----2-------------------|
F#|-2----3--------------------3----2--------------------2----3--------------------3----2-------------------|
     ~~~~~~~~~~~~~~~~~~~~~~~~~~~~~~~~~~~~~~~~~~~~~~~~~~~~~~~~~~~~~~~~~~~~~~~~~~~~~~~~~~~~~~~~~~~~~~~~~~~~~M


REFREN 1:

F#|-----------------------------------------------------|
C#|-----------------------------------------------------|
A |-----------------------------------------------------| --4x
E |-----------------------------------------------------|
B |-2-3-2------2-3-2--2------2-3-2--2------2-3-2--2-4---|
F#|-2-3-2--7---2-3-2--2--7---2-3-2--2--7---2-3-2--2-4---|
         M         M  M         M  M         M

F#|-----------------------------------------|
C#|-----------------------------------------|
A |-----------------7-7-8-8-8-7-7-7-8-8-8-7-|
E |-----------------------------------------|
B |-3--3--3--3---3--------------------------|
F#|-----------------------------------------|


VERSE 2:

Riff 1 (s tremolo efektom):
F#|----------------|
C#|----------------|
A |----------------|
E |----------------|
B |-2--2--2--------|
F#|-2--2--2--------|
           ~~~~~~~~
Riff 2 (s tremolo efektom):
F#|-14-----------------|
C#|------14---15-------|
A |--------------------|
E |--------------------|
B |--------------------|
F#|--------------------|


BRIDGE:
    |--------------------------------------4x----------------------------------------|
F#|---------------------------------------------------------------------------------------------------------|
C#|---------------------------------------------------------------------------------------------------------|
A |-------5-5-5-5-5-5-5-7-7-7-7-7-9-9-9-9-9-9-9---10101010---9-9-9-9---10101010---9-9-----------------------|
E |-------------------------------------7-7-7-7---7-7-7-7----7-7-7-7---7-7-7-7----7-7-----------------------|
B |-5--2--3-3-3-3-3-3-3-5-5-5-5-5-7-7-7-----------------------------------------------5--2--2---------------|
F#|-5--2------------------------------------------------------------------------------5--2--2---------------|
                                               M          M         M          M             ~~~~~~~~~~~~~~~

Nato riff 1 4x (s tremolo efektom):
F#|----------------|
C#|----------------|
A |----------------|
E |----------------|
B |-2--2--2--------|
F#|-2--2--2--------|
           ~~~~~~~~


OUTRO:
    |------------------------4x------------------------|
F#|------------------------------------------------------------|
C#|------------------------------------------------------------|
A |------------------------------------------------------------|
E |------------------------------------------------------------|
B |-2-3-2------2-3-2--2------2-3-2--2------2-3-2--2-4---2-3-2--|
F#|-2-3-2--7---2-3-2--2--7---2-3-2--2--7---2-3-2--2-4---2-3-2--|
         M         M  M         M  M         M             M


D-Fact - Blok blok - indeksirano na Trzalica.com.
Uporabniki, ki so igrali D-Fact - Blok blok, so igrali tudi sledeče pesmi od D-Fact:
Vse ti enkrat vrne se nazaj, Love song, Mavrične melodije, album ČAS, Poglej mamici v oči,
Daj dinar

Namig:

Iskalnik akordov in tablatur www.Glasbenik.net trenutno indeksira približno 7'800 pesmi izpod prstov približno 500 različnih izvajalcev. In nove pesmi se pridno nabirajo v našem arhivu, tako da vam jih zlepa ne bo zmanjkalo.

Pokažite svoj talent!

Tu lahko objavite vaš video ali audio posnetek! Hočem vedeti več ...
Kje lahko najdemo vaš nastop? Hočem vedeti več ...
Vaš komentar:
Prosimo, prijavite se in objavite vaš nastop.
cookieassistant.com