Izvajalci:   A B C Č D E F G H I J K L M N O P Q R S Š T U V W X Y Z Ž
Trenutna ocena: 1
Oceni akorde:
1  2  3  4  5
Transponiraj pesem:
Parni valjak - Jesen u meni (solo)
     Am       E          Am          E    
-----------------------------------------------|
-----------------------------------------------|
----------------------------------9-7-5h7p5----| 2x
---------10-----7-10-7----------------------9--|
-0-7-7-7----0-7--------7--7-7-9-7--------------|
-----------------------------------------------|
                                                                              
  Dm G C C A* (sweep picking)             
------------------------------------------------------------------------------------
-----------------------------------8------------------------------------------------
-9--9-7-9-7--7----7-9--7----7--9------10-12-10-12-10--5-7-7/9-7-5-4-4/10-7----7-----
---------------10--------10------------------------------------------------10---9v--
------------------------------------------------------------------------------------
------------------------------------------------------------------------------------

A* (x4222*)

tabbed by zheetko (zheetko@gmail.com)


Parni Valjak - Jesen u meni v1 - indeksirano na Trzalica.com.
Uporabniki, ki so igrali Parni Valjak - Jesen u meni v1, so igrali tudi sledeče pesmi od Parni Valjak:
Sve još miriše na nju, Prokleta nedelja, Dok je tebe, Jesen u meni v2, Moja pjesma lagana,
Uhvati Ritam

Namig:

Če se vam niti ne sanja, kako prijeti akord "Absus4" in podobne eksote, se z miško zapeljite nad akord in prikazal se vam bo diagram akorda.

Pokažite svoj talent!

Tu lahko objavite vaš video ali audio posnetek! Hočem vedeti več ...
Kje lahko najdemo vaš nastop? Hočem vedeti več ...
Vaš komentar:
Prosimo, prijavite se in objavite vaš nastop.
cookieassistant.com