Izvajalci:   A B C Č D E F G H I J K L M N O P Q R S Š T U V W X Y Z Ž
Trenutna ocena: 0
Oceni akorde:
1  2  3  4  5
Transponiraj pesem:
VIDEOSEX - KAKO BIH VOLEO DA SI TU
---------------------------------------------------------------------------
| Album: Videosex 84 (P)1983                                              |
| Avtorja: Turk - Kosi                                                    |
| Predelave: Goblini (v njihovi izvedbi pesem nosi naslov 'Anja volim te')|
| (Med ostalim je bila skladba uporabljena tudi v reklami za Mobitel.)    |
---------------------------------------------------------------------------

[Uvod]: (2 kitari)

  [Kitara 1]
   A                                                                
e|----------------------|----------------------|----------------------|
B|----------------------|----------------------|----------------------|
G|----------------------|----------------------|----------------------| D|------------7---------|------------7---------|------------7---------|
A|---------7-------7----|---------7-------7----|---------7-------7----|
E|--5-------------------|--5-------------------|--5-------------------|
 |[Kitara 2]                                                          | 
e|----------------------|----------------------|----------------------|
B|----------------------|----------------------|----------------------|
G|----------------------|----------------------|----------------------|
D|----------------------|----------------------|----------------------|
A|----------------------|----------------------|----------------------|
E|----------------------|----------------------|----------------------|


  [Kitara 1]
   A                                                            
e|----------------------|----------------------|----------------------|
B|----------------------|----------------------|----------------------|
G|----------------------|----------------------|----------------------|
D|------------7---------|------------7---------|------------7---------|
A|---------7-------7----|---------7-------7----|---------7-------7----|
E|--5-------------------|--5-------------------|--5-------------------|
 |[Kitara 2]                                                          |
e|----------------------|----------------------|----------------------|
B|----------------------|----------------------|----------------------|
G|------------6----7----|--9-------------------|----------------------|
D|------------7----9----|--11------------------|----------------------|
A|----------------------|----------------------|----------------------|
E|----------------------|----------------------|----------------------|


  [Kitara 1]
   A                                              F#m                                                             
e|----------------------|----------------------|----------------------|
B|----------------------|----------------------|----------------------|
G|----------------------|----------------------|----------------------|
D|------------7---------|------------7---------|------------4---------|
A|---------7-------7----|---------7-------7----|---------4-------4----|
E|--5-------------------|--5-------------------|--2-------------------|
 |[Kitara 2]                                                          | 
e|----------------------|----------------------|----------------------|
B|----------------------|----------------------|----------------------|
G|---------9--9-----7---|--7------6--6----4----|--2-------------------|
D|---------11-11----9---|--9------7--7----6----|--4-------------------|
A|----------------------|----------------------|----------------------|
E|----------------------|----------------------|----------------------|


  [Kitara 1] 
   F#m                                                                 
e|----------------------|----------------------|----------------------|
B|----------------------|----------------------|----------------------|
G|----------------------|----------------------|----------------------|
D|------------4---------|------------4---------|------------4---------|
A|---------4-------4----|---------4-------4----|---------4-------4----|
E|--2-------------------|--2-------------------|--2-------------------|
 |[Kitara 2]                                                          | 
e|----------------------|----------------------|----------------------|
B|----------------------|----------------------|----------------------|
G|----------------------|---------7--7----6----|--6------4--4----2----|
D|----------------------|---------9--9----7----|--7------6--6----4----|
A|----------------------|----------------------|----------------------|
E|----------------------|----------------------|----------------------|


  [Kitara 1] 
    D                                                       
e|----------------------|----------------------|----------------------|
B|----------------------|----------------------|----------------------|
G|------------7---------|------------7---------|------------7---------|
D|---------7-------7----|---------7-------7----|---------7-------7----|
A|--5-------------------|--5-------------------|--5-------------------|
E|----------------------|----------------------|----------------------|
 |[Kitara 2]                                                          |
e|----------------------|----------------------|----------------------|
B|----------------------|----------------------|----------------------|
G|----------------------|----------------------|----------------------|
D|--4-------------------|----------------------|----------------------|
A|--5-------------------|----------------------|----------------------|
E|----------------------|----------------------|----------------------|
  

  [Kitara 1] 
   D                       E                                                                  
e|----------------------|----------------------|----------------------|
B|----------------------|----------------------|----------------------|
G|------------7---------|------------9---------|------------9---------|
D|---------7-------7----|---------9-------9----|---------9-------9----|
A|--5-------------------|--7-------------------|--7-------------------|
E|----------------------|----------------------|----------------------|
 |[Kitara 2]                                                          |
e|----------------------|----------------------|----------------------|
B|----------------------|----------------------|----------------------|
G|----------------------|----------------------|----------------------|
D|------------6----7----|--6-------------------|----------------------|
A|------------7----9----|--7-------------------|----------------------|
E|----------------------|----------------------|----------------------|


  [Kitara 1] 
    E                                                
e|----------------------|----------------------|
B|----------------------|----------------------|
G|------------9---------|----------------------|
D|---------9-------9----|----------------------|
A|--7-------------------|----------------------|
E|----------------------|--0----2----4---------|
 |[Kitara 2]                                   |
e|----------------------|----------------------|
B|----------------------|----------------------|
G|----------------------|----------------------|
D|----------------------|----------------------|
A|----------------------|----------------------|
E|----------------------|----------------------|


A                    F#m
Kako bih voleo da si tu!
A                     E
Grad je tako tužan, a ti si s one strane.
A                F#m
Ove su kuće tako ružne.
Bm          C#m        A
O, kako bih voleo da si tu...
Bm          C#m        A
O, kako bih voleo da si tu...


[Refren]:

  A5                 F#5
Kako bih voleo da si tu!
A5                   E5
Grad je tako velik i ti si s one strane.
A5               F#5
Ove su kuće tako ružne.
B5       C#5
Kako bih voleo...
   B5       C#5
O, kako bih voleo...
   B5       C#5        A5
O, kako bih voleo da si tu...


Videosex - Kako bih volio da si tu - indeksirano na Trzalica.com.
Uporabniki, ki so igrali Videosex - Kako bih volio da si tu, so igrali tudi sledeče pesmi od Videosex:
Zemlja pleše, Vozi me vlak v daljave

Namig:

Če se vam niti ne sanja, kako prijeti akord "Absus4" in podobne eksote, se z miško zapeljite nad akord in prikazal se vam bo diagram akorda.

Pokažite svoj talent!

Tu lahko objavite vaš video ali audio posnetek! Hočem vedeti več ...
Kje lahko najdemo vaš nastop? Hočem vedeti več ...
Vaš komentar:
Prosimo, prijavite se in objavite vaš nastop.
cookieassistant.com