Izvajalci:   A B C Č D E F G H I J K L M N O P Q R S Š T U V W X Y Z Ž
Trenutna ocena: 0
Oceni akorde:
1  2  3  4  5
Transponiraj pesem:
#======================== !!! N E   P R E Z R I !!! ===========================#
#     Transkripcija je delo njenega avtorja in predstavlja njegovo lastno      #
# interpretacijo skladbe. Njen namen ni kršenje avtorskih pravic, temveč pomoč #
# drugim glasbenikom pri učenju in izpopolnjevanju kitarske tehnike ter znanja.#
# Uporaba gradiva na portalu Trzalica.com je dovoljena le za osebno uporabo in #
#  le ob pogoju, da si lastite originalen izdelek danega glasbenega izvajalca. #
#       Portal Trzalica.COM ne odgovorja za nespoštovanje teh pravil.          #
#==============================================================================#
#                                                                              #
#                    w w w . t r z a l i c a . c o m                           #
#               K j e r   i m a m o   r a d i   g l a s b o                    #
#                                                                              #
#==============================================================================#

	 Izvajalec: ..................... Siddharta
	 Skladba: ....................... Japan
	 Transkripcijo izdelal .......... jakapust@pjcomics.com
	 Domača stran transkripcije ..... www.trzalica.com

	 POSODOBIL: AliAs, 30.3.2007

================================================================================

 Siddharta - Japan


Drop-D uglasitev (zgornjo E struno uglasite navzdol na D)

Področje označeno z [--m--] pomeni palm muting - tam z dlanjo zadušite zvok


intro riff1 za 1.kitaro(distortion):

E|-----------------------------------------------------------------|
B|-----------------------------------------------------------------|
G|-----------------------------------------------------------------|
D|-3-----3---------3-----3---------3-----3-------------------------|
A|-3-----3---------3-----3---------3-----3-------------------------|
D|-3-0-0-3-0-0-0-0-3-0-0-3-0-0-0-0-3-0-0-3-0-0-0-0-0-0-0-0-0-0-0-0-|
    [-m-] [---m---] [-m-] [---m---] [-m-] [-----------m------------]

E|-----------------------------------------------------------------|
B|-----------------------------------------------------------------|
G|-----------------------------------------------------------------|
D|-3-----3---------3-----3-----------0---2---3---------------------|
A|-3-----3---------3-----3-----------0---2---3---------------------|
D|-3-0-0-3-0-0-0-0-3-0-0-3-0-0-0-0-0-0---2---3-0-0-0-0-0-0-0-0-0-0-|
    [-m-] [---m---] [-m-] [----m----] [m] [m] [---------m----------]

(riff1A)
E|-----------------------------------------------------------------|
B|-----------------------------------------------------------------|
G|-----------------------------------------------------------------|
D|-3-----3---------3-----3---------3-----2---3---2-----------------|
A|-3-----3---------3-----3---------3-----2---3---2-----------------|
D|-3-0-0-3-0-0-0-0-3-0-0-3-0-0-0-0-3-0-0-2-0-3-0-2-0-0-0-0-0-0-0-0-|
    [-m-] [---m---] [-m-] [---m---] [-m-] [m] [m] [-------m--------]

E|-----------------------------------------------------------------|
B|-----------------------------------------------------------------|
G|-----------------------------------------------------------------|
D|-3-----3---------3-----3-----------0---2---3-0-0-----------------|
A|-3-----3---------3-----3-----------0---2---3-0-0-----------------|
D|-3-0-0-3-0-0-0-0-3-0-0-3-0-0-0-0-0-0-0-2-0-3-0-0-0-0-0-0-0-0-0-0-|
    [-m-] [---m---] [-m-] [----m----] [m] [m]     [-------m--------]


intro riff1 na drug način (lahko za 2. kitaro):

E|-----------------------------------------------------------------|
B|-----------------------------------------------------------------|
G|-----------------------------------------------------------------|
D|19----18--------17----15--------19----18-------------------------|
A|-----------------------------------------------------------------|
D|---0-0---0-0-0-0---0-0---0-0-0-0---0-0---0-0-0-0-0-0-0-0-0-0-0-0-|
    [-m-] [---m---] [-m-] [---m---] [-m-] [-----------m------------]

E|-----------------------------------------------------------------|
B|-----------------------------------------------------------------|
G|-----------------------------------------------------------------|
D|19----18--------17----15----------12--14--15---------------------|
A|-----------------------------------------------------------------|
D|---0-0---0-0-0-0---0-0---0-0-0-0-0-----------0-0-0-0-0-0-0-0-0-0-|
    [-m-] [---m---] [-m-] [----m----] [m] [m] [---------m----------]

(riff1A)
E|-----------------------------------------------------------------|
B|-----------------------------------------------------------------|
G|-----------------------------------------------------------------|
D|19----18--------17----15--------19----18--19--18-----------------|
A|-----------------------------------------------------------------|
D|---0-0---0-0-0-0---0-0---0-0-0-0---0-0---0---0---0-0-0-0-0-0-0-0-|
    [-m-] [---m---] [-m-] [---m---] [-m-] [m] [m] [-------m--------]

E|-----------------------------------------------------------------|
B|-----------------------------------------------------------------|
G|-----------------------------------------------------------------|
D|19----18--------17----15----------12--14--1512-------------------|
A|-----------------------------------------------------------------|
D|---0-0---0-0-0-0---0-0---0-0-0-0-0---0---0-------0-0-0-0-0-0-2---|
    [-m-] [---m---] [-m-] [----m----] [m] [m]     [-----m-----]


intro riff2(distortion):
(riff2A):
E|---------------------------------------------------------------|
B|---------------------------------------------------------------|
G|---------------------------------------------------------------|
D|---------------------------------------------------------------|
A|-------------------------------2-0-2-0-3---0---2-0-2-0-3---0---|
D|-0-2-0-3---0---2-0-2-0-3---0-----------------------------------|

E|----------------------------------------------------------------|
B|----------------------------------------------------------------|
G|----------------------------------------------------------------|
D|-------------------------------------------------------------2--|
A|-------------------------------2-0-2-0-3---0---2-0-2-0-3---0----|
D|-0-2-0-3---0---2-0-2-0-3---0------------------------------------|

riff2A

E|--------------------------------------------------------------|
B|--------------------------------------------------------------|
G|--------------------------------------------------------------|
D|--------------------------------------------------------------|
A|-------------------------------2-0-2-0-3---0---2-0-2-0-3--2-0-|
D|-0-2-0-3---0---2-0-2-0-3---0----------------------------------|


ref1:

Gledam ven v temo...
   F                 G                 Em                Am
E|-----------------------------------------------------------------------|
B|-------1-----------------3-----------------0-----------------1---------|
G|-----2------2----------4------4----------0------0----------2------2----|
D|---3----------3------5----------5------2----------2------2----------2--|
A|-3-----------------5-----------------2-----------------0---------------|
D|-----------------------------------------------------------------------|
Ni me strah...
   F                 G                 Em                F
E|-----------------------------------------------------------------------|
B|-------1-----------------3-----------------0-----------------1---------|
G|-----2------2----------4------4----------0------0----------2------2----|
D|---3----------3------5----------5------2----------2------3----------3--|
A|-3-----------------5-----------------2-----------------3---------------|
D|-----------------------------------------------------------------------|

ref2 (distortion):
   F5              G5              E5              A5
E|-----------------------------------------------------------------|
B|-----------------------------------------------------------------|
G|-------------------------------------------------2-2-2-2-2-2-2-2-|
D|-3-3-3-3-3-3-3-3-5-5-5-5-5-5-5-5-2-2-2-2-2-2-2-2-2-2-2-2-2-2-2-2-|
A|-3-3-3-3-3-3-3-3-5-5-5-5-5-5-5-5-2-2-2-2-2-2-2-2-0-0-0-0-0-0-0-0-|
D|-3-3-3-3-3-3-3-3-5-5-5-5-5-5-5-5-2-2-2-2-2-2-2-2-----------------|

   F5              G5              E5              F5
E|-----------------------------------------------------------------|
B|-----------------------------------------------------------------|
G|-----------------------------------------------------------------|
D|-3-3-3-3-3-3-3-3-5-5-5-5-5-5-5-5-2-2-2-2-2-2-2-2-3-3-3-3-3-3---3-|
A|-3-3-3-3-3-3-3-3-5-5-5-5-5-5-5-5-2-2-2-2-2-2-2-2-3-3-3-3-3-3-----|
D|-3-3-3-3-3-3-3-3-5-5-5-5-5-5-5-5-2-2-2-2-2-2-2-2-3-3-3-3-3-3-3---|
                                                              [m] [m]


sledi riff3 (distortion)

E|-----------------------------------------------------------------|
B|-----------------------------------------------------------------|
G|-----------------------------------------------------------------| 4x
D|-------------------------------------------2---------------------|
A|-----------0---------------------2-0-0-2-3---2-2-2-0-0-0-0-0-0-0-|
D|-2-0-0-2-3---2-2-2-0-0-0-0-0-0-0---------------------------------|
    [-m-]             [-----m-----] [-m-]             [-----m-----]


ref2

ref1

...to mora biti raj...

je raaaaaaaaaaaaaaaaa.........
E|----------------------------------------------------------------------------|
B|----------------------------------------------------------------------------|
G|----------------------------------------------------------------------------|
D|----------------------------------------------------------------------------|
A|12-12-12-12-11-11-11-11-10-10-10-10-9-9-9-9-8-8-8-8-7-7-7-7-6-6-6-6-5-5-5-5-|
D|12-12-12-12-11-11-11-11-10-10-10-10-9-9-9-9-8-8-8-8-7-7-7-7-6-6-6-6-5-5-5-5-|
 [------------------------------------m---------------------------------------]

(nato sledi rif)
.....aaaaaaaaaj........
E|-----------------------------------------------------------------|
B|-----------------------------------------------------------------|
G|-----------------------------------------------------------------|
D|-3-----3-----3---3-----3---3---3-3-----3-----3---3-----3---3---3-|
A|-3-----3-----3---3-----3---3---3-3-----3-----3---3-----3---3---3-|
D|-3-0-0-3-0-0-3-0-3-0-0-3-0-3-0-3-3-0-0-3-0-0-3-0-3-0-0-3-0-3-0-3-|
    [-m-] [-m-] [m] [-m-] [m] [m]   [-m-] [-m-] [m] [-m-] [m] [m]


je raaaaaj je raaaaaj je raaaaaj je raaaaaj
riff1A (glej riff1 zgoraj) (2x)


divje zvezde zdaj me grejejo,
hladno sonce naše je zašlo,
E|----------------------------------------------------------------|
B|----------------------------------------------------------------|
G|----------------------------------------------------------------|
D|----------------------------------------------------------------| 2x
A|----------------------------------------------------------------|
D|-3-3-3-3-3-3-3-3-5-5-5-5-5-5-5-5-2-2-2-2-2-2-2-2-3-3-3-3-3-3-3-3|
  [-----------------------------m---------------------------------]

E|----------------------------------------------------------------|
B|----------------------------------------------------------------|
G|----------------------------------------------------------------|
D|----------------------------------------------------------------|
A|----------------------------------------------------------------|
D|-3-3-3-3-0-3-3-3-5-5-5-5-2-2-2-2-3-3-3-3-0-3-3-3-3-3-3-3-0-3-3-3|
  [-----------------------------m---------------------------------]

E|----------------------------------------------------------------------------|
B|----------------------------------------------------------------------------|
G|----------------------------------------------------------------------------|
D|----------------------------------------------------------------------------|
A|----------------------------------------------------------------------------|
D|-3-3-3-3-0-3-3-3-5-5-5-5-2-2-2-2-3-3-3-3-0-3-3-3-5-5-5-5-0-5-5-5-7-7-7-7-...|
  [-----------------------------------m---------------------------------------]


ref2 (3x)




jakapust@pjcomics.com


Siddharta - Japan v1 - indeksirano na Trzalica.com.
Uporabniki, ki so igrali Siddharta - Japan v1, so igrali tudi sledeče pesmi od Siddharta:
Orion Lady v2, Homo Carnula v1, THOR v1, Farmer, 01 (nulaena) v2, Klinik v2
Ogromno število pesmi z akordi in tablaturami izvajalca Siddharta najdete tudi na spletni strani YourChords.com pod Siddharta Chords and Tabs.

Namig:

Preizkusite AutoScroller ... Tako se lahko povsem posvetite preigravanju kitare, medtem ko se bo besedilo z akordi avtomatsko pomikalo po ekranu. S pomočjo miške oziroma tipkovnice (tipke 0, 1, 2 in 3) lahko izbirate med različnimi hitrostmi premikanja besedila.

Pokažite svoj talent!

Tu lahko objavite vaš video ali audio posnetek! Hočem vedeti več ...
Kje lahko najdemo vaš nastop? Hočem vedeti več ...
Vaš komentar:
Prosimo, prijavite se in objavite vaš nastop.
cookieassistant.com